  0
SECTION
  2
HEADER
  9
$PDMODE
 70
    32
  9
$PDSIZE
 40
-3.00000000
  9
$LIMMIN
 10
343416.75263355
 20
6655457.41744607
  9
$LIMMAX
 10
343617.47094669
 20
6655580.45571441
  0
ENDSEC
  0
SECTION
  2
TABLES
  0
TABLE
  2
LAYER
 70
     4
  0
LAYER
  2
Str_Light
 62
     7
 70
    64
  6
CONTINUOUS
  0
LAYER
  2
Road
 62
     7
 70
    64
  6
CONTINUOUS
  0
LAYER
  2
Park
 62
     7
 70
    64
  6
CONTINUOUS
  0
LAYER
  2
Soil_dpth
 62
     7
 70
    64
  6
CONTINUOUS
  0
ENDTAB
  0
ENDSEC
  0
SECTION
  2
BLOCKS
  0
BLOCK
  8
Str_Light
  2
Str_Light_ATTR
 70
     2
 10
0.00000000
 20
0.00000000
 30
0.00000000
  0
ENDBLK
  8
Str_Light
  0
BLOCK
  8
Road
  2
Road_ATTR
 70
     2
 10
0.00000000
 20
0.00000000
 30
0.00000000
  0
ENDBLK
  8
Road
  0
BLOCK
  8
Park
  2
Park_ATTR
 70
     2
 10
0.00000000
 20
0.00000000
 30
0.00000000
  0
ENDBLK
  8
Park
  0
BLOCK
  8
Soil_dpth
  2
Soil_dpth_ATTR
 70
     2
 10
0.00000000
 20
0.00000000
 30
0.00000000
  0
ENDBLK
  8
Soil_dpth
  0
ENDSEC
  0
SECTION
  2
ENTITIES
  0
INSERT
  5
1
  8
Str_Light
 66
     1
  2
Str_Light_ATTR
 10
343616.25183304
 20
6655567.78074853
 30
101.09044686
  0
ATTRIB
  5
2
  8
Str_Light
 62
     7
 10
343618.25901617
 20
6655569.78793166
 30
101.09044686
 40
2.00718313
  1

 72
     0
  7
STANDARD
  2
Condition
 70
     2
  0
ATTRIB
  5
3
  8
Str_Light
 62
     7
 10
343618.25901617
 20
6655566.77715696
 30
101.09044686
 40
2.00718313
  1
1
 72
     0
  7
STANDARD
  2
#_of_bulbs
 70
     2
  0
ATTRIB
  5
4
  8
Str_Light
 62
     7
 10
343618.25901617
 20
6655563.76638227
 30
101.09044686
 40
2.00718313
  1
Unknown
 72
     0
  7
STANDARD
  2
Closest_Ad
 70
     2
  0
SEQEND
  5
5
  8
Str_Light
  0
POINT
  5
6
  8
Str_Light
 10
343616.25183304
 20
6655567.78074853
 30
101.09044686
  0
INSERT
  5
7
  8
Str_Light
 66
     1
  2
Str_Light_ATTR
 10
343614.57431057
 20
6655542.87288594
 30
102.44617128
  0
ATTRIB
  5
8
  8
Str_Light
 62
     7
 10
343616.58149370
 20
6655544.88006907
 30
102.44617128
 40
2.00718313
  1

 72
     0
  7
STANDARD
  2
Condition
 70
     2
  0
ATTRIB
  5
9
  8
Str_Light
 62
     7
 10
343616.58149370
 20
6655541.86929438
 30
102.44617128
 40
2.00718313
  1
1
 72
     0
  7
STANDARD
  2
#_of_bulbs
 70
     2
  0
ATTRIB
  5
a
  8
Str_Light
 62
     7
 10
343616.58149370
 20
6655538.85851968
 30
102.44617128
 40
2.00718313
  1
Unknown
 72
     0
  7
STANDARD
  2
Closest_Ad
 70
     2
  0
SEQEND
  5
b
  8
Str_Light
  0
POINT
  5
c
  8
Str_Light
 10
343614.57431057
 20
6655542.87288594
 30
102.44617128
  0
INSERT
  5
d
  8
Str_Light
 66
     1
  2
Str_Light_ATTR
 10
343614.55166413
 20
6655539.01133365
 30
102.32681619
  0
ATTRIB
  5
e
  8
Str_Light
 62
     7
 10
343616.55884726
 20
6655541.01851678
 30
102.32681619
 40
2.00718313
  1

 72
     0
  7
STANDARD
  2
Condition
 70
     2
  0
ATTRIB
  5
f
  8
Str_Light
 62
     7
 10
343616.55884726
 20
6655538.00774209
 30
102.32681619
 40
2.00718313
  1
1
 72
     0
  7
STANDARD
  2
#_of_bulbs
 70
     2
  0
ATTRIB
  5
10
  8
Str_Light
 62
     7
 10
343616.55884726
 20
6655534.99696739
 30
102.32681619
 40
2.00718313
  1
Unknown
 72
     0
  7
STANDARD
  2
Closest_Ad
 70
     2
  0
SEQEND
  5
11
  8
Str_Light
  0
POINT
  5
12
  8
Str_Light
 10
343614.55166413
 20
6655539.01133365
 30
102.32681619
  0
INSERT
  5
13
  8
Str_Light
 66
     1
  2
Str_Light_ATTR
 10
343614.26641145
 20
6655534.03740141
 30
102.01872212
  0
ATTRIB
  5
14
  8
Str_Light
 62
     7
 10
343616.27359459
 20
6655536.04458454
 30
102.01872212
 40
2.00718313
  1

 72
     0
  7
STANDARD
  2
Condition
 70
     2
  0
ATTRIB
  5
15
  8
Str_Light
 62
     7
 10
343616.27359459
 20
6655533.03380985
 30
102.01872212
 40
2.00718313
  1
1
 72
     0
  7
STANDARD
  2
#_of_bulbs
 70
     2
  0
ATTRIB
  5
16
  8
Str_Light
 62
     7
 10
343616.27359459
 20
6655530.02303515
 30
102.01872212
 40
2.00718313
  1
Unknown
 72
     0
  7
STANDARD
  2
Closest_Ad
 70
     2
  0
SEQEND
  5
17
  8
Str_Light
  0
POINT
  5
18
  8
Str_Light
 10
343614.26641145
 20
6655534.03740141
 30
102.01872212
  0
INSERT
  5
19
  8
Str_Light
 66
     1
  2
Str_Light_ATTR
 10
343613.01567835
 20
6655505.44712502
 30
102.02239147
  0
ATTRIB
  5
1a
  8
Str_Light
 62
     7
 10
343615.02286148
 20
6655507.45430815
 30
102.02239147
 40
2.00718313
  1

 72
     0
  7
STANDARD
  2
Condition
 70
     2
  0
ATTRIB
  5
1b
  8
Str_Light
 62
     7
 10
343615.02286148
 20
6655504.44353346
 30
102.02239147
 40
2.00718313
  1
1
 72
     0
  7
STANDARD
  2
#_of_bulbs
 70
     2
  0
ATTRIB
  5
1c
  8
Str_Light
 62
     7
 10
343615.02286148
 20
6655501.43275876
 30
102.02239147
 40
2.00718313
  1
Unknown
 72
     0
  7
STANDARD
  2
Closest_Ad
 70
     2
  0
SEQEND
  5
1d
  8
Str_Light
  0
POINT
  5
1e
  8
Str_Light
 10
343613.01567835
 20
6655505.44712502
 30
102.02239147
  0
INSERT
  5
1f
  8
Str_Light
 66
     1
  2
Str_Light_ATTR
 10
343606.71447145
 20
6655545.84314199
 30
101.70841790
  0
ATTRIB
  5
20
  8
Str_Light
 62
     7
 10
343608.72165458
 20
6655547.85032512
 30
101.70841790
 40
2.00718313
  1

 72
     0
  7
STANDARD
  2
Condition
 70
     2
  0
ATTRIB
  5
21
  8
Str_Light
 62
     7
 10
343608.72165458
 20
6655544.83955042
 30
101.70841790
 40
2.00718313
  1
1
 72
     0
  7
STANDARD
  2
#_of_bulbs
 70
     2
  0
ATTRIB
  5
22
  8
Str_Light
 62
     7
 10
343608.72165458
 20
6655541.82877573
 30
101.70841790
 40
2.00718313
  1
Unknown
 72
     0
  7
STANDARD
  2
Closest_Ad
 70
     2
  0
SEQEND
  5
23
  8
Str_Light
  0
POINT
  5
24
  8
Str_Light
 10
343606.71447145
 20
6655545.84314199
 30
101.70841790
  0
INSERT
  5
25
  8
Str_Light
 66
     1
  2
Str_Light_ATTR
 10
343605.47310137
 20
6655551.62920190
 30
101.69449296
  0
ATTRIB
  5
26
  8
Str_Light
 62
     7
 10
343607.48028450
 20
6655553.63638503
 30
101.69449296
 40
2.00718313
  1

 72
     0
  7
STANDARD
  2
Condition
 70
     2
  0
ATTRIB
  5
27
  8
Str_Light
 62
     7
 10
343607.48028450
 20
6655550.62561033
 30
101.69449296
 40
2.00718313
  1
1
 72
     0
  7
STANDARD
  2
#_of_bulbs
 70
     2
  0
ATTRIB
  5
28
  8
Str_Light
 62
     7
 10
343607.48028450
 20
6655547.61483564
 30
101.69449296
 40
2.00718313
  1
Unknown
 72
     0
  7
STANDARD
  2
Closest_Ad
 70
     2
  0
SEQEND
  5
29
  8
Str_Light
  0
POINT
  5
2a
  8
Str_Light
 10
343605.47310137
 20
6655551.62920190
 30
101.69449296
  0
INSERT
  5
2b
  8
Str_Light
 66
     1
  2
Str_Light_ATTR
 10
343587.97689010
 20
6655549.93530940
 30
101.66274644
  0
ATTRIB
  5
2c
  8
Str_Light
 62
     7
 10
343589.98407324
 20
6655551.94249253
 30
101.66274644
 40
2.00718313
  1

 72
     0
  7
STANDARD
  2
Condition
 70
     2
  0
ATTRIB
  5
2d
  8
Str_Light
 62
     7
 10
343589.98407324
 20
6655548.93171783
 30
101.66274644
 40
2.00718313
  1
1
 72
     0
  7
STANDARD
  2
#_of_bulbs
 70
     2
  0
ATTRIB
  5
2e
  8
Str_Light
 62
     7
 10
343589.98407324
 20
6655545.92094313
 30
101.66274644
 40
2.00718313
  1
Unknown
 72
     0
  7
STANDARD
  2
Closest_Ad
 70
     2
  0
SEQEND
  5
2f
  8
Str_Light
  0
POINT
  5
30
  8
Str_Light
 10
343587.97689010
 20
6655549.93530940
 30
101.66274644
  0
INSERT
  5
31
  8
Str_Light
 66
     1
  2
Str_Light_ATTR
 10
343563.14273853
 20
6655559.28178682
 30
108.51892764
  0
ATTRIB
  5
32
  8
Str_Light
 62
     7
 10
343565.14992166
 20
6655561.28896996
 30
108.51892764
 40
2.00718313
  1

 72
     0
  7
STANDARD
  2
Condition
 70
     2
  0
ATTRIB
  5
33
  8
Str_Light
 62
     7
 10
343565.14992166
 20
6655558.27819526
 30
108.51892764
 40
2.00718313
  1
1
 72
     0
  7
STANDARD
  2
#_of_bulbs
 70
     2
  0
ATTRIB
  5
34
  8
Str_Light
 62
     7
 10
343565.14992166
 20
6655555.26742056
 30
108.51892764
 40
2.00718313
  1
Unknown
 72
     0
  7
STANDARD
  2
Closest_Ad
 70
     2
  0
SEQEND
  5
35
  8
Str_Light
  0
POINT
  5
36
  8
Str_Light
 10
343563.14273853
 20
6655559.28178682
 30
108.51892764
  0
INSERT
  5
37
  8
Str_Light
 66
     1
  2
Str_Light_ATTR
 10
343555.81591427
 20
6655584.11814241
 30
107.30203939
  0
ATTRIB
  5
38
  8
Str_Light
 62
     7
 10
343557.82309740
 20
6655586.12532554
 30
107.30203939
 40
2.00718313
  1

 72
     0
  7
STANDARD
  2
Condition
 70
     2
  0
ATTRIB
  5
39
  8
Str_Light
 62
     7
 10
343557.82309740
 20
6655583.11455085
 30
107.30203939
 40
2.00718313
  1
1
 72
     0
  7
STANDARD
  2
#_of_bulbs
 70
     2
  0
ATTRIB
  5
3a
  8
Str_Light
 62
     7
 10
343557.82309740
 20
6655580.10377615
 30
107.30203939
 40
2.00718313
  1
Unknown
 72
     0
  7
STANDARD
  2
Closest_Ad
 70
     2
  0
SEQEND
  5
3b
  8
Str_Light
  0
POINT
  5
3c
  8
Str_Light
 10
343555.81591427
 20
6655584.11814241
 30
107.30203939
  0
INSERT
  5
3d
  8
Str_Light
 66
     1
  2
Str_Light_ATTR
 10
343501.14382821
 20
6655573.48600748
 30
99.47997168
  0
ATTRIB
  5
3e
  8
Str_Light
 62
     7
 10
343503.15101134
 20
6655575.49319061
 30
99.47997168
 40
2.00718313
  1

 72
     0
  7
STANDARD
  2
Condition
 70
     2
  0
ATTRIB
  5
3f
  8
Str_Light
 62
     7
 10
343503.15101134
 20
6655572.48241591
 30
99.47997168
 40
2.00718313
  1
1
 72
     0
  7
STANDARD
  2
#_of_bulbs
 70
     2
  0
ATTRIB
  5
40
  8
Str_Light
 62
     7
 10
343503.15101134
 20
6655569.47164122
 30
99.47997168
 40
2.00718313
  1
Unknown
 72
     0
  7
STANDARD
  2
Closest_Ad
 70
     2
  0
SEQEND
  5
41
  8
Str_Light
  0
POINT
  5
42
  8
Str_Light
 10
343501.14382821
 20
6655573.48600748
 30
99.47997168
  0
INSERT
  5
43
  8
Str_Light
 66
     1
  2
Str_Light_ATTR
 10
343500.80096744
 20
6655575.48070473
 30
99.78680812
  0
ATTRIB
  5
44
  8
Str_Light
 62
     7
 10
343502.80815057
 20
6655577.48788786
 30
99.78680812
 40
2.00718313
  1

 72
     0
  7
STANDARD
  2
Condition
 70
     2
  0
ATTRIB
  5
45
  8
Str_Light
 62
     7
 10
343502.80815057
 20
6655574.47711317
 30
99.78680812
 40
2.00718313
  1
1
 72
     0
  7
STANDARD
  2
#_of_bulbs
 70
     2
  0
ATTRIB
  5
46
  8
Str_Light
 62
     7
 10
343502.80815057
 20
6655571.46633847
 30
99.78680812
 40
2.00718313
  1
Unknown
 72
     0
  7
STANDARD
  2
Closest_Ad
 70
     2
  0
SEQEND
  5
47
  8
Str_Light
  0
POINT
  5
48
  8
Str_Light
 10
343500.80096744
 20
6655575.48070473
 30
99.78680812
  0
INSERT
  5
49
  8
Str_Light
 66
     1
  2
Str_Light_ATTR
 10
343483.79370720
 20
6655562.69600931
 30
100.72690304
  0
ATTRIB
  5
4a
  8
Str_Light
 62
     7
 10
343485.80089033
 20
6655564.70319245
 30
100.72690304
 40
2.00718313
  1

 72
     0
  7
STANDARD
  2
Condition
 70
     2
  0
ATTRIB
  5
4b
  8
Str_Light
 62
     7
 10
343485.80089033
 20
6655561.69241775
 30
100.72690304
 40
2.00718313
  1
1
 72
     0
  7
STANDARD
  2
#_of_bulbs
 70
     2
  0
ATTRIB
  5
4c
  8
Str_Light
 62
     7
 10
343485.80089033
 20
6655558.68164305
 30
100.72690304
 40
2.00718313
  1
Unknown
 72
     0
  7
STANDARD
  2
Closest_Ad
 70
     2
  0
SEQEND
  5
4d
  8
Str_Light
  0
POINT
  5
4e
  8
Str_Light
 10
343483.79370720
 20
6655562.69600931
 30
100.72690304
  0
INSERT
  5
4f
  8
Str_Light
 66
     1
  2
Str_Light_ATTR
 10
343467.69740936
 20
6655562.27918412
 30
100.55554716
  0
ATTRIB
  5
50
  8
Str_Light
 62
     7
 10
343469.70459249
 20
6655564.28636725
 30
100.55554716
 40
2.00718313
  1

 72
     0
  7
STANDARD
  2
Condition
 70
     2
  0
ATTRIB
  5
51
  8
Str_Light
 62
     7
 10
343469.70459249
 20
6655561.27559255
 30
100.55554716
 40
2.00718313
  1
1
 72
     0
  7
STANDARD
  2
#_of_bulbs
 70
     2
  0
ATTRIB
  5
52
  8
Str_Light
 62
     7
 10
343469.70459249
 20
6655558.26481785
 30
100.55554716
 40
2.00718313
  1
Unknown
 72
     0
  7
STANDARD
  2
Closest_Ad
 70
     2
  0
SEQEND
  5
53
  8
Str_Light
  0
POINT
  5
54
  8
Str_Light
 10
343467.69740936
 20
6655562.27918412
 30
100.55554716
  0
INSERT
  5
55
  8
Str_Light
 66
     1
  2
Str_Light_ATTR
 10
343445.87230628
 20
6655558.63078390
 30
103.50031999
  0
ATTRIB
  5
56
  8
Str_Light
 62
     7
 10
343447.87948941
 20
6655560.63796703
 30
103.50031999
 40
2.00718313
  1

 72
     0
  7
STANDARD
  2
Condition
 70
     2
  0
ATTRIB
  5
57
  8
Str_Light
 62
     7
 10
343447.87948941
 20
6655557.62719233
 30
103.50031999
 40
2.00718313
  1
1
 72
     0
  7
STANDARD
  2
#_of_bulbs
 70
     2
  0
ATTRIB
  5
58
  8
Str_Light
 62
     7
 10
343447.87948941
 20
6655554.61641764
 30
103.50031999
 40
2.00718313
  1
Unknown
 72
     0
  7
STANDARD
  2
Closest_Ad
 70
     2
  0
SEQEND
  5
59
  8
Str_Light
  0
POINT
  5
5a
  8
Str_Light
 10
343445.87230628
 20
6655558.63078390
 30
103.50031999
  0
INSERT
  5
5b
  8
Str_Light
 66
     1
  2
Str_Light_ATTR
 10
343441.04975500
 20
6655549.00311707
 30
101.48760132
  0
ATTRIB
  5
5c
  8
Str_Light
 62
     7
 10
343443.05693813
 20
6655551.01030020
 30
101.48760132
 40
2.00718313
  1

 72
     0
  7
STANDARD
  2
Condition
 70
     2
  0
ATTRIB
  5
5d
  8
Str_Light
 62
     7
 10
343443.05693813
 20
6655547.99952551
 30
101.48760132
 40
2.00718313
  1
1
 72
     0
  7
STANDARD
  2
#_of_bulbs
 70
     2
  0
ATTRIB
  5
5e
  8
Str_Light
 62
     7
 10
343443.05693813
 20
6655544.98875081
 30
101.48760132
 40
2.00718313
  1
Unknown
 72
     0
  7
STANDARD
  2
Closest_Ad
 70
     2
  0
SEQEND
  5
5f
  8
Str_Light
  0
POINT
  5
60
  8
Str_Light
 10
343441.04975500
 20
6655549.00311707
 30
101.48760132
  0
INSERT
  5
61
  8
Str_Light
 66
     1
  2
Str_Light_ATTR
 10
343440.70332583
 20
6655546.26237254
 30
103.34345906
  0
ATTRIB
  5
62
  8
Str_Light
 62
     7
 10
343442.71050896
 20
6655548.26955567
 30
103.34345906
 40
2.00718313
  1

 72
     0
  7
STANDARD
  2
Condition
 70
     2
  0
ATTRIB
  5
63
  8
Str_Light
 62
     7
 10
343442.71050896
 20
6655545.25878098
 30
103.34345906
 40
2.00718313
  1
1
 72
     0
  7
STANDARD
  2
#_of_bulbs
 70
     2
  0
ATTRIB
  5
64
  8
Str_Light
 62
     7
 10
343442.71050896
 20
6655542.24800628
 30
103.34345906
 40
2.00718313
  1
Unknown
 72
     0
  7
STANDARD
  2
Closest_Ad
 70
     2
  0
SEQEND
  5
65
  8
Str_Light
  0
POINT
  5
66
  8
Str_Light
 10
343440.70332583
 20
6655546.26237254
 30
103.34345906
  0
INSERT
  5
67
  8
Str_Light
 66
     1
  2
Str_Light_ATTR
 10
343421.70192012
 20
6655540.69809637
 30
102.39646201
  0
ATTRIB
  5
68
  8
Str_Light
 62
     7
 10
343423.70910325
 20
6655542.70527951
 30
102.39646201
 40
2.00718313
  1

 72
     0
  7
STANDARD
  2
Condition
 70
     2
  0
ATTRIB
  5
69
  8
Str_Light
 62
     7
 10
343423.70910325
 20
6655539.69450481
 30
102.39646201
 40
2.00718313
  1
1
 72
     0
  7
STANDARD
  2
#_of_bulbs
 70
     2
  0
ATTRIB
  5
6a
  8
Str_Light
 62
     7
 10
343423.70910325
 20
6655536.68373011
 30
102.39646201
 40
2.00718313
  1
Unknown
 72
     0
  7
STANDARD
  2
Closest_Ad
 70
     2
  0
SEQEND
  5
6b
  8
Str_Light
  0
POINT
  5
6c
  8
Str_Light
 10
343421.70192012
 20
6655540.69809637
 30
102.39646201
  0
INSERT
  5
6d
  8
Str_Light
 66
     1
  2
Str_Light_ATTR
 10
343419.25997247
 20
6655499.05676423
 30
100.29864364
  0
ATTRIB
  5
6e
  8
Str_Light
 62
     7
 10
343421.26715560
 20
6655501.06394737
 30
100.29864364
 40
2.00718313
  1

 72
     0
  7
STANDARD
  2
Condition
 70
     2
  0
ATTRIB
  5
6f
  8
Str_Light
 62
     7
 10
343421.26715560
 20
6655498.05317267
 30
100.29864364
 40
2.00718313
  1
1
 72
     0
  7
STANDARD
  2
#_of_bulbs
 70
     2
  0
ATTRIB
  5
70
  8
Str_Light
 62
     7
 10
343421.26715560
 20
6655495.04239797
 30
100.29864364
 40
2.00718313
  1
Unknown
 72
     0
  7
STANDARD
  2
Closest_Ad
 70
     2
  0
SEQEND
  5
71
  8
Str_Light
  0
POINT
  5
72
  8
Str_Light
 10
343419.25997247
 20
6655499.05676423
 30
100.29864364
  0
INSERT
  5
73
  8
Str_Light
 66
     1
  2
Str_Light_ATTR
 10
343418.50468938
 20
6655479.01392972
 30
106.61303674
  0
ATTRIB
  5
74
  8
Str_Light
 62
     7
 10
343420.51187251
 20
6655481.02111285
 30
106.61303674
 40
2.00718313
  1

 72
     0
  7
STANDARD
  2
Condition
 70
     2
  0
ATTRIB
  5
75
  8
Str_Light
 62
     7
 10
343420.51187251
 20
6655478.01033816
 30
106.61303674
 40
2.00718313
  1
1
 72
     0
  7
STANDARD
  2
#_of_bulbs
 70
     2
  0
ATTRIB
  5
76
  8
Str_Light
 62
     7
 10
343420.51187251
 20
6655474.99956346
 30
106.61303674
 40
2.00718313
  1
Unknown
 72
     0
  7
STANDARD
  2
Closest_Ad
 70
     2
  0
SEQEND
  5
77
  8
Str_Light
  0
POINT
  5
78
  8
Str_Light
 10
343418.50468938
 20
6655479.01392972
 30
106.61303674
  0
INSERT
  5
79
  8
Str_Light
 66
     1
  2
Str_Light_ATTR
 10
343418.74686208
 20
6655478.46744033
 30
105.48974648
  0
ATTRIB
  5
7a
  8
Str_Light
 62
     7
 10
343420.75404522
 20
6655480.47462347
 30
105.48974648
 40
2.00718313
  1

 72
     0
  7
STANDARD
  2
Condition
 70
     2
  0
ATTRIB
  5
7b
  8
Str_Light
 62
     7
 10
343420.75404522
 20
6655477.46384877
 30
105.48974648
 40
2.00718313
  1
1
 72
     0
  7
STANDARD
  2
#_of_bulbs
 70
     2
  0
ATTRIB
  5
7c
  8
Str_Light
 62
     7
 10
343420.75404522
 20
6655474.45307407
 30
105.48974648
 40
2.00718313
  1
Unknown
 72
     0
  7
STANDARD
  2
Closest_Ad
 70
     2
  0
SEQEND
  5
7d
  8
Str_Light
  0
POINT
  5
7e
  8
Str_Light
 10
343418.74686208
 20
6655478.46744033
 30
105.48974648
  0
INSERT
  5
7f
  8
Str_Light
 66
     1
  2
Str_Light_ATTR
 10
343429.37051022
 20
6655456.66759147
 30
106.71586202
  0
ATTRIB
  5
80
  8
Str_Light
 62
     7
 10
343431.37769335
 20
6655458.67477460
 30
106.71586202
 40
2.00718313
  1

 72
     0
  7
STANDARD
  2
Condition
 70
     2
  0
ATTRIB
  5
81
  8
Str_Light
 62
     7
 10
343431.37769335
 20
6655455.66399990
 30
106.71586202
 40
2.00718313
  1
1
 72
     0
  7
STANDARD
  2
#_of_bulbs
 70
     2
  0
ATTRIB
  5
82
  8
Str_Light
 62
     7
 10
343431.37769335
 20
6655452.65322521
 30
106.71586202
 40
2.00718313
  1
Unknown
 72
     0
  7
STANDARD
  2
Closest_Ad
 70
     2
  0
SEQEND
  5
83
  8
Str_Light
  0
POINT
  5
84
  8
Str_Light
 10
343429.37051022
 20
6655456.66759147
 30
106.71586202
  0
INSERT
  5
85
  8
Str_Light
 66
     1
  2
Str_Light_ATTR
 10
343441.97237288
 20
6655458.25346605
 30
108.40589302
  0
ATTRIB
  5
86
  8
Str_Light
 62
     7
 10
343443.97955601
 20
6655460.26064918
 30
108.40589302
 40
2.00718313
  1

 72
     0
  7
STANDARD
  2
Condition
 70
     2
  0
ATTRIB
  5
87
  8
Str_Light
 62
     7
 10
343443.97955601
 20
6655457.24987449
 30
108.40589302
 40
2.00718313
  1
1
 72
     0
  7
STANDARD
  2
#_of_bulbs
 70
     2
  0
ATTRIB
  5
88
  8
Str_Light
 62
     7
 10
343443.97955601
 20
6655454.23909979
 30
108.40589302
 40
2.00718313
  1
Unknown
 72
     0
  7
STANDARD
  2
Closest_Ad
 70
     2
  0
SEQEND
  5
89
  8
Str_Light
  0
POINT
  5
8a
  8
Str_Light
 10
343441.97237288
 20
6655458.25346605
 30
108.40589302
  0
INSERT
  5
8b
  8
Str_Light
 66
     1
  2
Str_Light_ATTR
 10
343462.18675982
 20
6655461.91767639
 30
107.04150382
  0
ATTRIB
  5
8c
  8
Str_Light
 62
     7
 10
343464.19394295
 20
6655463.92485952
 30
107.04150382
 40
2.00718313
  1

 72
     0
  7
STANDARD
  2
Condition
 70
     2
  0
ATTRIB
  5
8d
  8
Str_Light
 62
     7
 10
343464.19394295
 20
6655460.91408482
 30
107.04150382
 40
2.00718313
  1
1
 72
     0
  7
STANDARD
  2
#_of_bulbs
 70
     2
  0
ATTRIB
  5
8e
  8
Str_Light
 62
     7
 10
343464.19394295
 20
6655457.90331012
 30
107.04150382
 40
2.00718313
  1
Unknown
 72
     0
  7
STANDARD
  2
Closest_Ad
 70
     2
  0
SEQEND
  5
8f
  8
Str_Light
  0
POINT
  5
90
  8
Str_Light
 10
343462.18675982
 20
6655461.91767639
 30
107.04150382
  0
INSERT
  5
91
  8
Str_Light
 66
     1
  2
Str_Light_ATTR
 10
343477.46902929
 20
6655462.97860638
 30
109.96578298
  0
ATTRIB
  5
92
  8
Str_Light
 62
     7
 10
343479.47621242
 20
6655464.98578951
 30
109.96578298
 40
2.00718313
  1

 72
     0
  7
STANDARD
  2
Condition
 70
     2
  0
ATTRIB
  5
93
  8
Str_Light
 62
     7
 10
343479.47621242
 20
6655461.97501481
 30
109.96578298
 40
2.00718313
  1
1
 72
     0
  7
STANDARD
  2
#_of_bulbs
 70
     2
  0
ATTRIB
  5
94
  8
Str_Light
 62
     7
 10
343479.47621242
 20
6655458.96424012
 30
109.96578298
 40
2.00718313
  1
Unknown
 72
     0
  7
STANDARD
  2
Closest_Ad
 70
     2
  0
SEQEND
  5
95
  8
Str_Light
  0
POINT
  5
96
  8
Str_Light
 10
343477.46902929
 20
6655462.97860638
 30
109.96578298
  0
INSERT
  5
97
  8
Str_Light
 66
     1
  2
Str_Light_ATTR
 10
343467.86201194
 20
6655505.50756730
 30
102.31212413
  0
ATTRIB
  5
98
  8
Str_Light
 62
     7
 10
343469.86919508
 20
6655507.51475043
 30
102.31212413
 40
2.00718313
  1

 72
     0
  7
STANDARD
  2
Condition
 70
     2
  0
ATTRIB
  5
99
  8
Str_Light
 62
     7
 10
343469.86919508
 20
6655504.50397574
 30
102.31212413
 40
2.00718313
  1
1
 72
     0
  7
STANDARD
  2
#_of_bulbs
 70
     2
  0
ATTRIB
  5
9a
  8
Str_Light
 62
     7
 10
343469.86919508
 20
6655501.49320104
 30
102.31212413
 40
2.00718313
  1
Unknown
 72
     0
  7
STANDARD
  2
Closest_Ad
 70
     2
  0
SEQEND
  5
9b
  8
Str_Light
  0
POINT
  5
9c
  8
Str_Light
 10
343467.86201194
 20
6655505.50756730
 30
102.31212413
  0
INSERT
  5
9d
  8
Str_Light
 66
     1
  2
Str_Light_ATTR
 10
343501.30182489
 20
6655508.20524148
 30
100.67503615
  0
ATTRIB
  5
9e
  8
Str_Light
 62
     7
 10
343503.30900802
 20
6655510.21242461
 30
100.67503615
 40
2.00718313
  1

 72
     0
  7
STANDARD
  2
Condition
 70
     2
  0
ATTRIB
  5
9f
  8
Str_Light
 62
     7
 10
343503.30900802
 20
6655507.20164991
 30
100.67503615
 40
2.00718313
  1
1
 72
     0
  7
STANDARD
  2
#_of_bulbs
 70
     2
  0
ATTRIB
  5
a0
  8
Str_Light
 62
     7
 10
343503.30900802
 20
6655504.19087522
 30
100.67503615
 40
2.00718313
  1
Unknown
 72
     0
  7
STANDARD
  2
Closest_Ad
 70
     2
  0
SEQEND
  5
a1
  8
Str_Light
  0
POINT
  5
a2
  8
Str_Light
 10
343501.30182489
 20
6655508.20524148
 30
100.67503615
  0
INSERT
  5
a3
  8
Str_Light
 66
     1
  2
Str_Light_ATTR
 10
343501.91396559
 20
6655473.60130996
 30
99.15035468
  0
ATTRIB
  5
a4
  8
Str_Light
 62
     7
 10
343503.92114872
 20
6655475.60849309
 30
99.15035468
 40
2.00718313
  1

 72
     0
  7
STANDARD
  2
Condition
 70
     2
  0
ATTRIB
  5
a5
  8
Str_Light
 62
     7
 10
343503.92114872
 20
6655472.59771839
 30
99.15035468
 40
2.00718313
  1
1
 72
     0
  7
STANDARD
  2
#_of_bulbs
 70
     2
  0
ATTRIB
  5
a6
  8
Str_Light
 62
     7
 10
343503.92114872
 20
6655469.58694369
 30
99.15035468
 40
2.00718313
  1
Unknown
 72
     0
  7
STANDARD
  2
Closest_Ad
 70
     2
  0
SEQEND
  5
a7
  8
Str_Light
  0
POINT
  5
a8
  8
Str_Light
 10
343501.91396559
 20
6655473.60130996
 30
99.15035468
  0
INSERT
  5
a9
  8
Str_Light
 66
     1
  2
Str_Light_ATTR
 10
343540.75619310
 20
6655489.39922110
 30
100.03144330
  0
ATTRIB
  5
aa
  8
Str_Light
 62
     7
 10
343542.76337623
 20
6655491.40640423
 30
100.03144330
 40
2.00718313
  1

 72
     0
  7
STANDARD
  2
Condition
 70
     2
  0
ATTRIB
  5
ab
  8
Str_Light
 62
     7
 10
343542.76337623
 20
6655488.39562953
 30
100.03144330
 40
2.00718313
  1
1
 72
     0
  7
STANDARD
  2
#_of_bulbs
 70
     2
  0
ATTRIB
  5
ac
  8
Str_Light
 62
     7
 10
343542.76337623
 20
6655485.38485483
 30
100.03144330
 40
2.00718313
  1
Unknown
 72
     0
  7
STANDARD
  2
Closest_Ad
 70
     2
  0
SEQEND
  5
ad
  8
Str_Light
  0
POINT
  5
ae
  8
Str_Light
 10
343540.75619310
 20
6655489.39922110
 30
100.03144330
  0
INSERT
  5
af
  8
Str_Light
 66
     1
  2
Str_Light_ATTR
 10
343544.53087531
 20
6655493.89167780
 30
103.05542072
  0
ATTRIB
  5
b0
  8
Str_Light
 62
     7
 10
343546.53805844
 20
6655495.89886093
 30
103.05542072
 40
2.00718313
  1

 72
     0
  7
STANDARD
  2
Condition
 70
     2
  0
ATTRIB
  5
b1
  8
Str_Light
 62
     7
 10
343546.53805844
 20
6655492.88808623
 30
103.05542072
 40
2.00718313
  1
1
 72
     0
  7
STANDARD
  2
#_of_bulbs
 70
     2
  0
ATTRIB
  5
b2
  8
Str_Light
 62
     7
 10
343546.53805844
 20
6655489.87731153
 30
103.05542072
 40
2.00718313
  1
Unknown
 72
     0
  7
STANDARD
  2
Closest_Ad
 70
     2
  0
SEQEND
  5
b3
  8
Str_Light
  0
POINT
  5
b4
  8
Str_Light
 10
343544.53087531
 20
6655493.89167780
 30
103.05542072
  0
INSERT
  5
b5
  8
Str_Light
 66
     1
  2
Str_Light_ATTR
 10
343547.59799852
 20
6655506.55786857
 30
102.76311808
  0
ATTRIB
  5
b6
  8
Str_Light
 62
     7
 10
343549.60518165
 20
6655508.56505170
 30
102.76311808
 40
2.00718313
  1

 72
     0
  7
STANDARD
  2
Condition
 70
     2
  0
ATTRIB
  5
b7
  8
Str_Light
 62
     7
 10
343549.60518165
 20
6655505.55427700
 30
102.76311808
 40
2.00718313
  1
1
 72
     0
  7
STANDARD
  2
#_of_bulbs
 70
     2
  0
ATTRIB
  5
b8
  8
Str_Light
 62
     7
 10
343549.60518165
 20
6655502.54350230
 30
102.76311808
 40
2.00718313
  1
Unknown
 72
     0
  7
STANDARD
  2
Closest_Ad
 70
     2
  0
SEQEND
  5
b9
  8
Str_Light
  0
POINT
  5
ba
  8
Str_Light
 10
343547.59799852
 20
6655506.55786857
 30
102.76311808
  0
INSERT
  5
bb
  8
Str_Light
 66
     1
  2
Str_Light_ATTR
 10
343548.76547832
 20
6655511.19793379
 30
103.65464640
  0
ATTRIB
  5
bc
  8
Str_Light
 62
     7
 10
343550.77266145
 20
6655513.20511692
 30
103.65464640
 40
2.00718313
  1

 72
     0
  7
STANDARD
  2
Condition
 70
     2
  0
ATTRIB
  5
bd
  8
Str_Light
 62
     7
 10
343550.77266145
 20
6655510.19434223
 30
103.65464640
 40
2.00718313
  1
1
 72
     0
  7
STANDARD
  2
#_of_bulbs
 70
     2
  0
ATTRIB
  5
be
  8
Str_Light
 62
     7
 10
343550.77266145
 20
6655507.18356753
 30
103.65464640
 40
2.00718313
  1
Unknown
 72
     0
  7
STANDARD
  2
Closest_Ad
 70
     2
  0
SEQEND
  5
bf
  8
Str_Light
  0
POINT
  5
c0
  8
Str_Light
 10
343548.76547832
 20
6655511.19793379
 30
103.65464640
  0
INSERT
  5
c1
  8
Str_Light
 66
     1
  2
Str_Light_ATTR
 10
343557.10674469
 20
6655513.66490379
 30
102.20633861
  0
ATTRIB
  5
c2
  8
Str_Light
 62
     7
 10
343559.11392782
 20
6655515.67208692
 30
102.20633861
 40
2.00718313
  1

 72
     0
  7
STANDARD
  2
Condition
 70
     2
  0
ATTRIB
  5
c3
  8
Str_Light
 62
     7
 10
343559.11392782
 20
6655512.66131222
 30
102.20633861
 40
2.00718313
  1
1
 72
     0
  7
STANDARD
  2
#_of_bulbs
 70
     2
  0
ATTRIB
  5
c4
  8
Str_Light
 62
     7
 10
343559.11392782
 20
6655509.65053753
 30
102.20633861
 40
2.00718313
  1
Unknown
 72
     0
  7
STANDARD
  2
Closest_Ad
 70
     2
  0
SEQEND
  5
c5
  8
Str_Light
  0
POINT
  5
c6
  8
Str_Light
 10
343557.10674469
 20
6655513.66490379
 30
102.20633861
  0
INSERT
  5
c7
  8
Str_Light
 66
     1
  2
Str_Light_ATTR
 10
343569.65783329
 20
6655530.09057582
 30
103.45607474
  0
ATTRIB
  5
c8
  8
Str_Light
 62
     7
 10
343571.66501642
 20
6655532.09775895
 30
103.45607474
 40
2.00718313
  1

 72
     0
  7
STANDARD
  2
Condition
 70
     2
  0
ATTRIB
  5
c9
  8
Str_Light
 62
     7
 10
343571.66501642
 20
6655529.08698425
 30
103.45607474
 40
2.00718313
  1
1
 72
     0
  7
STANDARD
  2
#_of_bulbs
 70
     2
  0
ATTRIB
  5
ca
  8
Str_Light
 62
     7
 10
343571.66501642
 20
6655526.07620956
 30
103.45607474
 40
2.00718313
  1
Unknown
 72
     0
  7
STANDARD
  2
Closest_Ad
 70
     2
  0
SEQEND
  5
cb
  8
Str_Light
  0
POINT
  5
cc
  8
Str_Light
 10
343569.65783329
 20
6655530.09057582
 30
103.45607474
  0
INSERT
  5
cd
  8
Str_Light
 66
     1
  2
Str_Light_ATTR
 10
343456.92217369
 20
6655554.63208518
 30
96.44723053
  0
ATTRIB
  5
ce
  8
Str_Light
 62
     7
 10
343458.92935682
 20
6655556.63926831
 30
96.44723053
 40
2.00718313
  1

 72
     0
  7
STANDARD
  2
Condition
 70
     2
  0
ATTRIB
  5
cf
  8
Str_Light
 62
     7
 10
343458.92935682
 20
6655553.62849361
 30
96.44723053
 40
2.00718313
  1
1
 72
     0
  7
STANDARD
  2
#_of_bulbs
 70
     2
  0
ATTRIB
  5
d0
  8
Str_Light
 62
     7
 10
343458.92935682
 20
6655550.61771892
 30
96.44723053
 40
2.00718313
  1
Unknown
 72
     0
  7
STANDARD
  2
Closest_Ad
 70
     2
  0
SEQEND
  5
d1
  8
Str_Light
  0
POINT
  5
d2
  8
Str_Light
 10
343456.92217369
 20
6655554.63208518
 30
96.44723053
  0
INSERT
  5
d3
  8
Str_Light
 66
     1
  2
Str_Light_ATTR
 10
343422.35557073
 20
6655504.26050296
 30
101.70134118
  0
ATTRIB
  5
d4
  8
Str_Light
 62
     7
 10
343424.36275386
 20
6655506.26768609
 30
101.70134118
 40
2.00718313
  1

 72
     0
  7
STANDARD
  2
Condition
 70
     2
  0
ATTRIB
  5
d5
  8
Str_Light
 62
     7
 10
343424.36275386
 20
6655503.25691139
 30
101.70134118
 40
2.00718313
  1
1
 72
     0
  7
STANDARD
  2
#_of_bulbs
 70
     2
  0
ATTRIB
  5
d6
  8
Str_Light
 62
     7
 10
343424.36275386
 20
6655500.24613669
 30
101.70134118
 40
2.00718313
  1
Unknown
 72
     0
  7
STANDARD
  2
Closest_Ad
 70
     2
  0
SEQEND
  5
d7
  8
Str_Light
  0
POINT
  5
d8
  8
Str_Light
 10
343422.35557073
 20
6655504.26050296
 30
101.70134118
  0
INSERT
  5
d9
  8
Str_Light
 66
     1
  2
Str_Light_ATTR
 10
343491.90837094
 20
6655490.00227114
 30
103.93983173
  0
ATTRIB
  5
da
  8
Str_Light
 62
     7
 10
343493.91555407
 20
6655492.00945427
 30
103.93983173
 40
2.00718313
  1

 72
     0
  7
STANDARD
  2
Condition
 70
     2
  0
ATTRIB
  5
db
  8
Str_Light
 62
     7
 10
343493.91555407
 20
6655488.99867957
 30
103.93983173
 40
2.00718313
  1
1
 72
     0
  7
STANDARD
  2
#_of_bulbs
 70
     2
  0
ATTRIB
  5
dc
  8
Str_Light
 62
     7
 10
343493.91555407
 20
6655485.98790488
 30
103.93983173
 40
2.00718313
  1
Unknown
 72
     0
  7
STANDARD
  2
Closest_Ad
 70
     2
  0
SEQEND
  5
dd
  8
Str_Light
  0
POINT
  5
de
  8
Str_Light
 10
343491.90837094
 20
6655490.00227114
 30
103.93983173
  0
INSERT
  5
df
  8
Str_Light
 66
     1
  2
Str_Light_ATTR
 10
343488.27649167
 20
6655535.46724580
 30
102.41616362
  0
ATTRIB
  5
e0
  8
Str_Light
 62
     7
 10
343490.28367480
 20
6655537.47442893
 30
102.41616362
 40
2.00718313
  1

 72
     0
  7
STANDARD
  2
Condition
 70
     2
  0
ATTRIB
  5
e1
  8
Str_Light
 62
     7
 10
343490.28367480
 20
6655534.46365423
 30
102.41616362
 40
2.00718313
  1
1
 72
     0
  7
STANDARD
  2
#_of_bulbs
 70
     2
  0
ATTRIB
  5
e2
  8
Str_Light
 62
     7
 10
343490.28367480
 20
6655531.45287954
 30
102.41616362
 40
2.00718313
  1
Unknown
 72
     0
  7
STANDARD
  2
Closest_Ad
 70
     2
  0
SEQEND
  5
e3
  8
Str_Light
  0
POINT
  5
e4
  8
Str_Light
 10
343488.27649167
 20
6655535.46724580
 30
102.41616362
  0
INSERT
  5
e5
  8
Str_Light
 66
     1
  2
Str_Light_ATTR
 10
343544.33548012
 20
6655534.61219745
 30
101.07140513
  0
ATTRIB
  5
e6
  8
Str_Light
 62
     7
 10
343546.34266325
 20
6655536.61938058
 30
101.07140513
 40
2.00718313
  1

 72
     0
  7
STANDARD
  2
Condition
 70
     2
  0
ATTRIB
  5
e7
  8
Str_Light
 62
     7
 10
343546.34266325
 20
6655533.60860589
 30
101.07140513
 40
2.00718313
  1
1
 72
     0
  7
STANDARD
  2
#_of_bulbs
 70
     2
  0
ATTRIB
  5
e8
  8
Str_Light
 62
     7
 10
343546.34266325
 20
6655530.59783119
 30
101.07140513
 40
2.00718313
  1
Unknown
 72
     0
  7
STANDARD
  2
Closest_Ad
 70
     2
  0
SEQEND
  5
e9
  8
Str_Light
  0
POINT
  5
ea
  8
Str_Light
 10
343544.33548012
 20
6655534.61219745
 30
101.07140513
  0
INSERT
  5
eb
  8
Str_Light
 66
     1
  2
Str_Light_ATTR
 10
343532.07396517
 20
6655517.76648115
 30
100.46658099
  0
ATTRIB
  5
ec
  8
Str_Light
 62
     7
 10
343534.08114831
 20
6655519.77366428
 30
100.46658099
 40
2.00718313
  1

 72
     0
  7
STANDARD
  2
Condition
 70
     2
  0
ATTRIB
  5
ed
  8
Str_Light
 62
     7
 10
343534.08114831
 20
6655516.76288958
 30
100.46658099
 40
2.00718313
  1
1
 72
     0
  7
STANDARD
  2
#_of_bulbs
 70
     2
  0
ATTRIB
  5
ee
  8
Str_Light
 62
     7
 10
343534.08114831
 20
6655513.75211488
 30
100.46658099
 40
2.00718313
  1
Unknown
 72
     0
  7
STANDARD
  2
Closest_Ad
 70
     2
  0
SEQEND
  5
ef
  8
Str_Light
  0
POINT
  5
f0
  8
Str_Light
 10
343532.07396517
 20
6655517.76648115
 30
100.46658099
  0
INSERT
  5
f1
  8
Str_Light
 66
     1
  2
Str_Light_ATTR
 10
343520.08815055
 20
6655554.48941169
 30
99.35599423
  0
ATTRIB
  5
f2
  8
Str_Light
 62
     7
 10
343522.09533368
 20
6655556.49659482
 30
99.35599423
 40
2.00718313
  1

 72
     0
  7
STANDARD
  2
Condition
 70
     2
  0
ATTRIB
  5
f3
  8
Str_Light
 62
     7
 10
343522.09533368
 20
6655553.48582013
 30
99.35599423
 40
2.00718313
  1
1
 72
     0
  7
STANDARD
  2
#_of_bulbs
 70
     2
  0
ATTRIB
  5
f4
  8
Str_Light
 62
     7
 10
343522.09533368
 20
6655550.47504543
 30
99.35599423
 40
2.00718313
  1
Unknown
 72
     0
  7
STANDARD
  2
Closest_Ad
 70
     2
  0
SEQEND
  5
f5
  8
Str_Light
  0
POINT
  5
f6
  8
Str_Light
 10
343520.08815055
 20
6655554.48941169
 30
99.35599423
  0
INSERT
  5
f7
  8
Str_Light
 66
     1
  2
Str_Light_ATTR
 10
343519.64257155
 20
6655553.23045055
 30
102.38807560
  0
ATTRIB
  5
f8
  8
Str_Light
 62
     7
 10
343521.64975468
 20
6655555.23763369
 30
102.38807560
 40
2.00718313
  1

 72
     0
  7
STANDARD
  2
Condition
 70
     2
  0
ATTRIB
  5
f9
  8
Str_Light
 62
     7
 10
343521.64975468
 20
6655552.22685899
 30
102.38807560
 40
2.00718313
  1
2
 72
     0
  7
STANDARD
  2
#_of_bulbs
 70
     2
  0
ATTRIB
  5
fa
  8
Str_Light
 62
     7
 10
343521.64975468
 20
6655549.21608429
 30
102.38807560
 40
2.00718313
  1
Unknown
 72
     0
  7
STANDARD
  2
Closest_Ad
 70
     2
  0
SEQEND
  5
fb
  8
Str_Light
  0
POINT
  5
fc
  8
Str_Light
 10
343519.64257155
 20
6655553.23045055
 30
102.38807560
  0
INSERT
  5
fd
  8
Str_Light
 66
     1
  2
Str_Light_ATTR
 10
343498.71458341
 20
6655522.96708537
 30
108.50250769
  0
ATTRIB
  5
fe
  8
Str_Light
 62
     7
 10
343500.72176654
 20
6655524.97426850
 30
108.50250769
 40
2.00718313
  1

 72
     0
  7
STANDARD
  2
Condition
 70
     2
  0
ATTRIB
  5
ff
  8
Str_Light
 62
     7
 10
343500.72176654
 20
6655521.96349380
 30
108.50250769
 40
2.00718313
  1
3
 72
     0
  7
STANDARD
  2
#_of_bulbs
 70
     2
  0
ATTRIB
  5
100
  8
Str_Light
 62
     7
 10
343500.72176654
 20
6655518.95271911
 30
108.50250769
 40
2.00718313
  1
Unknown
 72
     0
  7
STANDARD
  2
Closest_Ad
 70
     2
  0
SEQEND
  5
101
  8
Str_Light
  0
POINT
  5
102
  8
Str_Light
 10
343498.71458341
 20
6655522.96708537
 30
108.50250769
  0
INSERT
  5
103
  8
Str_Light
 66
     1
  2
Str_Light_ATTR
 10
343502.86418437
 20
6655509.03048550
 30
102.60156884
  0
ATTRIB
  5
104
  8
Str_Light
 62
     7
 10
343504.87136750
 20
6655511.03766863
 30
102.60156884
 40
2.00718313
  1

 72
     0
  7
STANDARD
  2
Condition
 70
     2
  0
ATTRIB
  5
105
  8
Str_Light
 62
     7
 10
343504.87136750
 20
6655508.02689394
 30
102.60156884
 40
2.00718313
  1
3
 72
     0
  7
STANDARD
  2
#_of_bulbs
 70
     2
  0
ATTRIB
  5
106
  8
Str_Light
 62
     7
 10
343504.87136750
 20
6655505.01611924
 30
102.60156884
 40
2.00718313
  1
Unknown
 72
     0
  7
STANDARD
  2
Closest_Ad
 70
     2
  0
SEQEND
  5
107
  8
Str_Light
  0
POINT
  5
108
  8
Str_Light
 10
343502.86418437
 20
6655509.03048550
 30
102.60156884
  0
INSERT
  5
109
  8
Str_Light
 66
     1
  2
Str_Light_ATTR
 10
343498.88445635
 20
6655533.90392036
 30
105.23942495
  0
ATTRIB
  5
10a
  8
Str_Light
 62
     7
 10
343500.89163948
 20
6655535.91110349
 30
105.23942495
 40
2.00718313
  1

 72
     0
  7
STANDARD
  2
Condition
 70
     2
  0
ATTRIB
  5
10b
  8
Str_Light
 62
     7
 10
343500.89163948
 20
6655532.90032880
 30
105.23942495
 40
2.00718313
  1
3
 72
     0
  7
STANDARD
  2
#_of_bulbs
 70
     2
  0
ATTRIB
  5
10c
  8
Str_Light
 62
     7
 10
343500.89163948
 20
6655529.88955410
 30
105.23942495
 40
2.00718313
  1
Unknown
 72
     0
  7
STANDARD
  2
Closest_Ad
 70
     2
  0
SEQEND
  5
10d
  8
Str_Light
  0
POINT
  5
10e
  8
Str_Light
 10
343498.88445635
 20
6655533.90392036
 30
105.23942495
  0
INSERT
  5
10f
  8
Str_Light
 66
     1
  2
Str_Light_ATTR
 10
343440.75023060
 20
6655459.28970127
 30
111.39505516
  0
ATTRIB
  5
110
  8
Str_Light
 62
     7
 10
343442.75741373
 20
6655461.29688440
 30
111.39505516
 40
2.00718313
  1

 72
     0
  7
STANDARD
  2
Condition
 70
     2
  0
ATTRIB
  5
111
  8
Str_Light
 62
     7
 10
343442.75741373
 20
6655458.28610970
 30
111.39505516
 40
2.00718313
  1
2
 72
     0
  7
STANDARD
  2
#_of_bulbs
 70
     2
  0
ATTRIB
  5
112
  8
Str_Light
 62
     7
 10
343442.75741373
 20
6655455.27533501
 30
111.39505516
 40
2.00718313
  1
Unknown
 72
     0
  7
STANDARD
  2
Closest_Ad
 70
     2
  0
SEQEND
  5
113
  8
Str_Light
  0
POINT
  5
114
  8
Str_Light
 10
343440.75023060
 20
6655459.28970127
 30
111.39505516
  0
INSERT
  5
115
  8
Str_Light
 66
     1
  2
Str_Light_ATTR
 10
343419.44692487
 20
6655480.85410474
 30
106.35218330
  0
ATTRIB
  5
116
  8
Str_Light
 62
     7
 10
343421.45410800
 20
6655482.86128787
 30
106.35218330
 40
2.00718313
  1
Needs repair
 72
     0
  7
STANDARD
  2
Condition
 70
     2
  0
ATTRIB
  5
117
  8
Str_Light
 62
     7
 10
343421.45410800
 20
6655479.85051317
 30
106.35218330
 40
2.00718313
  1
3
 72
     0
  7
STANDARD
  2
#_of_bulbs
 70
     2
  0
ATTRIB
  5
118
  8
Str_Light
 62
     7
 10
343421.45410800
 20
6655476.83973848
 30
106.35218330
 40
2.00718313
  1
Unknown
 72
     0
  7
STANDARD
  2
Closest_Ad
 70
     2
  0
SEQEND
  5
119
  8
Str_Light
  0
POINT
  5
11a
  8
Str_Light
 10
343419.44692487
 20
6655480.85410474
 30
106.35218330
  0
INSERT
  5
11b
  8
Str_Light
 66
     1
  2
Str_Light_ATTR
 10
343418.59894348
 20
6655482.05327044
 30
105.35608518
  0
ATTRIB
  5
11c
  8
Str_Light
 62
     7
 10
343420.60612661
 20
6655484.06045358
 30
105.35608518
 40
2.00718313
  1

 72
     0
  7
STANDARD
  2
Condition
 70
     2
  0
ATTRIB
  5
11d
  8
Str_Light
 62
     7
 10
343420.60612661
 20
6655481.04967888
 30
105.35608518
 40
2.00718313
  1
3
 72
     0
  7
STANDARD
  2
#_of_bulbs
 70
     2
  0
ATTRIB
  5
11e
  8
Str_Light
 62
     7
 10
343420.60612661
 20
6655478.03890418
 30
105.35608518
 40
2.00718313
  1
Unknown
 72
     0
  7
STANDARD
  2
Closest_Ad
 70
     2
  0
SEQEND
  5
11f
  8
Str_Light
  0
POINT
  5
120
  8
Str_Light
 10
343418.59894348
 20
6655482.05327044
 30
105.35608518
  0
INSERT
  5
121
  8
Str_Light
 66
     1
  2
Str_Light_ATTR
 10
343455.84246815
 20
6655549.28024257
 30
105.85966896
  0
ATTRIB
  5
122
  8
Str_Light
 62
     7
 10
343457.84965129
 20
6655551.28742570
 30
105.85966896
 40
2.00718313
  1

 72
     0
  7
STANDARD
  2
Condition
 70
     2
  0
ATTRIB
  5
123
  8
Str_Light
 62
     7
 10
343457.84965129
 20
6655548.27665100
 30
105.85966896
 40
2.00718313
  1
3
 72
     0
  7
STANDARD
  2
#_of_bulbs
 70
     2
  0
ATTRIB
  5
124
  8
Str_Light
 62
     7
 10
343457.84965129
 20
6655545.26587630
 30
105.85966896
 40
2.00718313
  1
Unknown
 72
     0
  7
STANDARD
  2
Closest_Ad
 70
     2
  0
SEQEND
  5
125
  8
Str_Light
  0
POINT
  5
126
  8
Str_Light
 10
343455.84246815
 20
6655549.28024257
 30
105.85966896
  0
INSERT
  5
127
  8
Str_Light
 66
     1
  2
Str_Light_ATTR
 10
343457.39419070
 20
6655553.88910624
 30
104.22738136
  0
ATTRIB
  5
128
  8
Str_Light
 62
     7
 10
343459.40137383
 20
6655555.89628938
 30
104.22738136
 40
2.00718313
  1

 72
     0
  7
STANDARD
  2
Condition
 70
     2
  0
ATTRIB
  5
129
  8
Str_Light
 62
     7
 10
343459.40137383
 20
6655552.88551468
 30
104.22738136
 40
2.00718313
  1
4
 72
     0
  7
STANDARD
  2
#_of_bulbs
 70
     2
  0
ATTRIB
  5
12a
  8
Str_Light
 62
     7
 10
343459.40137383
 20
6655549.87473998
 30
104.22738136
 40
2.00718313
  1
Unknown
 72
     0
  7
STANDARD
  2
Closest_Ad
 70
     2
  0
SEQEND
  5
12b
  8
Str_Light
  0
POINT
  5
12c
  8
Str_Light
 10
343457.39419070
 20
6655553.88910624
 30
104.22738136
  0
INSERT
  5
12d
  8
Str_Light
 66
     1
  2
Str_Light_ATTR
 10
343464.20932033
 20
6655508.77740386
 30
106.15694891
  0
ATTRIB
  5
12e
  8
Str_Light
 62
     7
 10
343466.21650346
 20
6655510.78458699
 30
106.15694891
 40
2.00718313
  1

 72
     0
  7
STANDARD
  2
Condition
 70
     2
  0
ATTRIB
  5
12f
  8
Str_Light
 62
     7
 10
343466.21650346
 20
6655507.77381229
 30
106.15694891
 40
2.00718313
  1
3
 72
     0
  7
STANDARD
  2
#_of_bulbs
 70
     2
  0
ATTRIB
  5
130
  8
Str_Light
 62
     7
 10
343466.21650346
 20
6655504.76303759
 30
106.15694891
 40
2.00718313
  1
Unknown
 72
     0
  7
STANDARD
  2
Closest_Ad
 70
     2
  0
SEQEND
  5
131
  8
Str_Light
  0
POINT
  5
132
  8
Str_Light
 10
343464.20932033
 20
6655508.77740386
 30
106.15694891
  0
INSERT
  5
133
  8
Str_Light
 66
     1
  2
Str_Light_ATTR
 10
343456.78982710
 20
6655548.70317314
 30
113.13795066
  0
ATTRIB
  5
134
  8
Str_Light
 62
     7
 10
343458.79701024
 20
6655550.71035627
 30
113.13795066
 40
2.00718313
  1

 72
     0
  7
STANDARD
  2
Condition
 70
     2
  0
ATTRIB
  5
135
  8
Str_Light
 62
     7
 10
343458.79701024
 20
6655547.69958157
 30
113.13795066
 40
2.00718313
  1
3
 72
     0
  7
STANDARD
  2
#_of_bulbs
 70
     2
  0
ATTRIB
  5
136
  8
Str_Light
 62
     7
 10
343458.79701024
 20
6655544.68880688
 30
113.13795066
 40
2.00718313
  1
Unknown
 72
     0
  7
STANDARD
  2
Closest_Ad
 70
     2
  0
SEQEND
  5
137
  8
Str_Light
  0
POINT
  5
138
  8
Str_Light
 10
343456.78982710
 20
6655548.70317314
 30
113.13795066
  0
INSERT
  5
139
  8
Str_Light
 66
     1
  2
Str_Light_ATTR
 10
343464.44916226
 20
6655543.18204494
 30
108.20135201
  0
ATTRIB
  5
13a
  8
Str_Light
 62
     7
 10
343466.45634539
 20
6655545.18922807
 30
108.20135201
 40
2.00718313
  1

 72
     0
  7
STANDARD
  2
Condition
 70
     2
  0
ATTRIB
  5
13b
  8
Str_Light
 62
     7
 10
343466.45634539
 20
6655542.17845337
 30
108.20135201
 40
2.00718313
  1
3
 72
     0
  7
STANDARD
  2
#_of_bulbs
 70
     2
  0
ATTRIB
  5
13c
  8
Str_Light
 62
     7
 10
343466.45634539
 20
6655539.16767867
 30
108.20135201
 40
2.00718313
  1
Unknown
 72
     0
  7
STANDARD
  2
Closest_Ad
 70
     2
  0
SEQEND
  5
13d
  8
Str_Light
  0
POINT
  5
13e
  8
Str_Light
 10
343464.44916226
 20
6655543.18204494
 30
108.20135201
  0
INSERT
  5
13f
  8
Str_Light
 66
     1
  2
Str_Light_ATTR
 10
343484.32718009
 20
6655538.09420207
 30
107.40730461
  0
ATTRIB
  5
140
  8
Str_Light
 62
     7
 10
343486.33436322
 20
6655540.10138520
 30
107.40730461
 40
2.00718313
  1

 72
     0
  7
STANDARD
  2
Condition
 70
     2
  0
ATTRIB
  5
141
  8
Str_Light
 62
     7
 10
343486.33436322
 20
6655537.09061051
 30
107.40730461
 40
2.00718313
  1
3
 72
     0
  7
STANDARD
  2
#_of_bulbs
 70
     2
  0
ATTRIB
  5
142
  8
Str_Light
 62
     7
 10
343486.33436322
 20
6655534.07983581
 30
107.40730461
 40
2.00718313
  1
Unknown
 72
     0
  7
STANDARD
  2
Closest_Ad
 70
     2
  0
SEQEND
  5
143
  8
Str_Light
  0
POINT
  5
144
  8
Str_Light
 10
343484.32718009
 20
6655538.09420207
 30
107.40730461
  0
INSERT
  5
145
  8
Str_Light
 66
     1
  2
Str_Light_ATTR
 10
343486.62730969
 20
6655524.55112398
 30
106.37876276
  0
ATTRIB
  5
146
  8
Str_Light
 62
     7
 10
343488.63449282
 20
6655526.55830712
 30
106.37876276
 40
2.00718313
  1

 72
     0
  7
STANDARD
  2
Condition
 70
     2
  0
ATTRIB
  5
147
  8
Str_Light
 62
     7
 10
343488.63449282
 20
6655523.54753242
 30
106.37876276
 40
2.00718313
  1
3
 72
     0
  7
STANDARD
  2
#_of_bulbs
 70
     2
  0
ATTRIB
  5
148
  8
Str_Light
 62
     7
 10
343488.63449282
 20
6655520.53675772
 30
106.37876276
 40
2.00718313
  1
Unknown
 72
     0
  7
STANDARD
  2
Closest_Ad
 70
     2
  0
SEQEND
  5
149
  8
Str_Light
  0
POINT
  5
14a
  8
Str_Light
 10
343486.62730969
 20
6655524.55112398
 30
106.37876276
  0
INSERT
  5
14b
  8
Str_Light
 66
     1
  2
Str_Light_ATTR
 10
343486.54830579
 20
6655523.69389811
 30
106.90608761
  0
ATTRIB
  5
14c
  8
Str_Light
 62
     7
 10
343488.55548892
 20
6655525.70108124
 30
106.90608761
 40
2.00718313
  1

 72
     0
  7
STANDARD
  2
Condition
 70
     2
  0
ATTRIB
  5
14d
  8
Str_Light
 62
     7
 10
343488.55548892
 20
6655522.69030654
 30
106.90608761
 40
2.00718313
  1
3
 72
     0
  7
STANDARD
  2
#_of_bulbs
 70
     2
  0
ATTRIB
  5
14e
  8
Str_Light
 62
     7
 10
343488.55548892
 20
6655519.67953185
 30
106.90608761
 40
2.00718313
  1
Unknown
 72
     0
  7
STANDARD
  2
Closest_Ad
 70
     2
  0
SEQEND
  5
14f
  8
Str_Light
  0
POINT
  5
150
  8
Str_Light
 10
343486.54830579
 20
6655523.69389811
 30
106.90608761
  0
INSERT
  5
151
  8
Str_Light
 66
     1
  2
Str_Light_ATTR
 10
343465.21250454
 20
6655538.06064040
 30
105.93375549
  0
ATTRIB
  5
152
  8
Str_Light
 62
     7
 10
343467.21968767
 20
6655540.06782353
 30
105.93375549
 40
2.00718313
  1

 72
     0
  7
STANDARD
  2
Condition
 70
     2
  0
ATTRIB
  5
153
  8
Str_Light
 62
     7
 10
343467.21968767
 20
6655537.05704883
 30
105.93375549
 40
2.00718313
  1
3
 72
     0
  7
STANDARD
  2
#_of_bulbs
 70
     2
  0
ATTRIB
  5
154
  8
Str_Light
 62
     7
 10
343467.21968767
 20
6655534.04627414
 30
105.93375549
 40
2.00718313
  1
Unknown
 72
     0
  7
STANDARD
  2
Closest_Ad
 70
     2
  0
SEQEND
  5
155
  8
Str_Light
  0
POINT
  5
156
  8
Str_Light
 10
343465.21250454
 20
6655538.06064040
 30
105.93375549
  0
INSERT
  5
157
  8
Str_Light
 66
     1
  2
Str_Light_ATTR
 10
343472.38767413
 20
6655512.11574710
 30
101.44752430
  0
ATTRIB
  5
158
  8
Str_Light
 62
     7
 10
343474.39485726
 20
6655514.12293023
 30
101.44752430
 40
2.00718313
  1

 72
     0
  7
STANDARD
  2
Condition
 70
     2
  0
ATTRIB
  5
159
  8
Str_Light
 62
     7
 10
343474.39485726
 20
6655511.11215553
 30
101.44752430
 40
2.00718313
  1
3
 72
     0
  7
STANDARD
  2
#_of_bulbs
 70
     2
  0
ATTRIB
  5
15a
  8
Str_Light
 62
     7
 10
343474.39485726
 20
6655508.10138084
 30
101.44752430
 40
2.00718313
  1
Unknown
 72
     0
  7
STANDARD
  2
Closest_Ad
 70
     2
  0
SEQEND
  5
15b
  8
Str_Light
  0
POINT
  5
15c
  8
Str_Light
 10
343472.38767413
 20
6655512.11574710
 30
101.44752430
  0
INSERT
  5
15d
  8
Str_Light
 66
     1
  2
Str_Light_ATTR
 10
343494.17658463
 20
6655512.90529251
 30
103.97129676
  0
ATTRIB
  5
15e
  8
Str_Light
 62
     7
 10
343496.18376776
 20
6655514.91247564
 30
103.97129676
 40
2.00718313
  1

 72
     0
  7
STANDARD
  2
Condition
 70
     2
  0
ATTRIB
  5
15f
  8
Str_Light
 62
     7
 10
343496.18376776
 20
6655511.90170094
 30
103.97129676
 40
2.00718313
  1
3
 72
     0
  7
STANDARD
  2
#_of_bulbs
 70
     2
  0
ATTRIB
  5
160
  8
Str_Light
 62
     7
 10
343496.18376776
 20
6655508.89092625
 30
103.97129676
 40
2.00718313
  1
Unknown
 72
     0
  7
STANDARD
  2
Closest_Ad
 70
     2
  0
SEQEND
  5
161
  8
Str_Light
  0
POINT
  5
162
  8
Str_Light
 10
343494.17658463
 20
6655512.90529251
 30
103.97129676
  0
INSERT
  5
163
  8
Str_Light
 66
     1
  2
Str_Light_ATTR
 10
343492.04535501
 20
6655527.96736801
 30
101.73525218
  0
ATTRIB
  5
164
  8
Str_Light
 62
     7
 10
343494.05253814
 20
6655529.97455115
 30
101.73525218
 40
2.00718313
  1

 72
     0
  7
STANDARD
  2
Condition
 70
     2
  0
ATTRIB
  5
165
  8
Str_Light
 62
     7
 10
343494.05253814
 20
6655526.96377645
 30
101.73525218
 40
2.00718313
  1
3
 72
     0
  7
STANDARD
  2
#_of_bulbs
 70
     2
  0
ATTRIB
  5
166
  8
Str_Light
 62
     7
 10
343494.05253814
 20
6655523.95300175
 30
101.73525218
 40
2.00718313
  1
Unknown
 72
     0
  7
STANDARD
  2
Closest_Ad
 70
     2
  0
SEQEND
  5
167
  8
Str_Light
  0
POINT
  5
168
  8
Str_Light
 10
343492.04535501
 20
6655527.96736801
 30
101.73525218
  0
INSERT
  5
169
  8
Str_Light
 66
     1
  2
Str_Light_ATTR
 10
343513.38443552
 20
6655531.57017649
 30
101.63052956
  0
ATTRIB
  5
16a
  8
Str_Light
 62
     7
 10
343515.39161865
 20
6655533.57735962
 30
101.63052956
 40
2.00718313
  1

 72
     0
  7
STANDARD
  2
Condition
 70
     2
  0
ATTRIB
  5
16b
  8
Str_Light
 62
     7
 10
343515.39161865
 20
6655530.56658492
 30
101.63052956
 40
2.00718313
  1
2
 72
     0
  7
STANDARD
  2
#_of_bulbs
 70
     2
  0
ATTRIB
  5
16c
  8
Str_Light
 62
     7
 10
343515.39161865
 20
6655527.55581023
 30
101.63052956
 40
2.00718313
  1
Unknown
 72
     0
  7
STANDARD
  2
Closest_Ad
 70
     2
  0
SEQEND
  5
16d
  8
Str_Light
  0
POINT
  5
16e
  8
Str_Light
 10
343513.38443552
 20
6655531.57017649
 30
101.63052956
  0
INSERT
  5
16f
  8
Str_Light
 66
     1
  2
Str_Light_ATTR
 10
343447.62821626
 20
6655529.05782677
 30
100.42266962
  0
ATTRIB
  5
170
  8
Str_Light
 62
     7
 10
343449.63539939
 20
6655531.06500990
 30
100.42266962
 40
2.00718313
  1

 72
     0
  7
STANDARD
  2
Condition
 70
     2
  0
ATTRIB
  5
171
  8
Str_Light
 62
     7
 10
343449.63539939
 20
6655528.05423520
 30
100.42266962
 40
2.00718313
  1
2
 72
     0
  7
STANDARD
  2
#_of_bulbs
 70
     2
  0
ATTRIB
  5
172
  8
Str_Light
 62
     7
 10
343449.63539939
 20
6655525.04346050
 30
100.42266962
 40
2.00718313
  1
Unknown
 72
     0
  7
STANDARD
  2
Closest_Ad
 70
     2
  0
SEQEND
  5
173
  8
Str_Light
  0
POINT
  5
174
  8
Str_Light
 10
343447.62821626
 20
6655529.05782677
 30
100.42266962
  0
INSERT
  5
175
  8
Road
 66
     1
  2
Road_ATTR
 10
343506.76578973
 20
6655517.48438493
 30
104.28892113
  0
ATTRIB
  5
176
  8
Road
 62
     7
 10
343508.77297286
 20
6655519.49156806
 30
104.28892113
 40
2.00718313
  1
Unknown
 72
     0
  7
STANDARD
  2
Name
 70
     2
  0
ATTRIB
  5
177
  8
Road
 62
     7
 10
343508.77297286
 20
6655516.48079336
 30
104.28892113
 40
2.00718313
  1

 72
     0
  7
STANDARD
  2
Pavement
 70
     2
  0
ATTRIB
  5
178
  8
Road
 62
     7
 10
343508.77297286
 20
6655513.47001866
 30
104.28892113
 40
2.00718313
  1
2
 72
     0
  7
STANDARD
  2
#_of_lanes
 70
     2
  0
SEQEND
  5
179
  8
Road
  0
POLYLINE
  5
17b
  8
Road
 66
     1
 10
0.00000000
 20
0.00000000
 30
0.00000000
 70
     8
  0
VERTEX
  5
17a
  8
Road
 70
    32
 10
343506.76578973
 20
6655517.48438493
 30
104.28892113
  0
SEQEND
  8
Road
  0
INSERT
  5
17c
  8
Road
 66
     1
  2
Road_ATTR
 10
343505.65359549
 20
6655517.69043813
 30
101.78727310
  0
ATTRIB
  5
17d
  8
Road
 62
     7
 10
343507.66077862
 20
6655519.69762126
 30
101.78727310
 40
2.00718313
  1
Unknown
 72
     0
  7
STANDARD
  2
Name
 70
     2
  0
ATTRIB
  5
17e
  8
Road
 62
     7
 10
343507.66077862
 20
6655516.68684656
 30
101.78727310
 40
2.00718313
  1

 72
     0
  7
STANDARD
  2
Pavement
 70
     2
  0
ATTRIB
  5
17f
  8
Road
 62
     7
 10
343507.66077862
 20
6655513.67607187
 30
101.78727310
 40
2.00718313
  1
2
 72
     0
  7
STANDARD
  2
#_of_lanes
 70
     2
  0
SEQEND
  5
180
  8
Road
  0
POLYLINE
  5
182
  8
Road
 66
     1
 10
0.00000000
 20
0.00000000
 30
0.00000000
 70
     8
  0
VERTEX
  5
181
  8
Road
 70
    32
 10
343505.65359549
 20
6655517.69043813
 30
101.78727310
  0
SEQEND
  8
Road
  0
INSERT
  5
183
  8
Road
 66
     1
  2
Road_ATTR
 10
343527.27972082
 20
6655515.05448237
 30
102.48894205
  0
ATTRIB
  5
184
  8
Road
 62
     7
 10
343529.28690395
 20
6655517.06166550
 30
102.48894205
 40
2.00718313
  1
Unknown
 72
     0
  7
STANDARD
  2
Name
 70
     2
  0
ATTRIB
  5
185
  8
Road
 62
     7
 10
343529.28690395
 20
6655514.05089080
 30
102.48894205
 40
2.00718313
  1

 72
     0
  7
STANDARD
  2
Pavement
 70
     2
  0
ATTRIB
  5
186
  8
Road
 62
     7
 10
343529.28690395
 20
6655511.04011610
 30
102.48894205
 40
2.00718313
  1
2
 72
     0
  7
STANDARD
  2
#_of_lanes
 70
     2
  0
SEQEND
  5
187
  8
Road
  0
POLYLINE
  5
1e9
  8
Road
 66
     1
 10
0.00000000
 20
0.00000000
 30
0.00000000
 70
     8
  0
VERTEX
  5
188
  8
Road
 70
    32
 10
343504.61660184
 20
6655518.37960193
 30
100.08720996
  0
VERTEX
  5
189
  8
Road
 70
    32
 10
343505.60097205
 20
6655519.01150649
 30
100.38139949
  0
VERTEX
  5
18a
  8
Road
 70
    32
 10
343506.29415165
 20
6655519.80215500
 30
100.60540189
  0
VERTEX
  5
18b
  8
Road
 70
    32
 10
343507.51806608
 20
6655520.45184210
 30
100.55906732
  0
VERTEX
  5
18c
  8
Road
 70
    32
 10
343508.34950259
 20
6655521.03306793
 30
100.59259156
  0
VERTEX
  5
18d
  8
Road
 70
    32
 10
343509.19846841
 20
6655521.51760602
 30
100.69912937
  0
VERTEX
  5
18e
  8
Road
 70
    32
 10
343510.45557736
 20
6655521.71374311
 30
100.90912829
  0
VERTEX
  5
18f
  8
Road
 70
    32
 10
343511.67429606
 20
6655522.32929825
 30
100.98099170
  0
VERTEX
  5
190
  8
Road
 70
    32
 10
343513.27230411
 20
6655522.48710562
 30
101.12275807
  0
VERTEX
  5
191
  8
Road
 70
    32
 10
343514.16954045
 20
6655522.58033232
 30
101.05696778
  0
VERTEX
  5
192
  8
Road
 70
    32
 10
343514.58667260
 20
6655522.89052264
 30
101.05797234
  0
VERTEX
  5
193
  8
Road
 70
    32
 10
343515.66896413
 20
6655522.96558370
 30
101.10537343
  0
VERTEX
  5
194
  8
Road
 70
    32
 10
343516.96314441
 20
6655523.10081033
 30
101.41303266
  0
VERTEX
  5
195
  8
Road
 70
    32
 10
343517.23370563
 20
6655523.45409643
 30
101.65504316
  0
VERTEX
  5
196
  8
Road
 70
    32
 10
343517.59723031
 20
6655523.69688711
 30
101.74646895
  0
VERTEX
  5
197
  8
Road
 70
    32
 10
343519.73282596
 20
6655525.09604949
 30
102.09939840
  0
VERTEX
  5
198
  8
Road
 70
    32
 10
343520.16747614
 20
6655525.13598061
 30
102.08835511
  0
VERTEX
  5
199
  8
Road
 70
    32
 10
343521.38073283
 20
6655525.45134265
 30
101.83291033
  0
VERTEX
  5
19a
  8
Road
 70
    32
 10
343522.56176229
 20
6655525.80342588
 30
101.60178770
  0
VERTEX
  5
19b
  8
Road
 70
    32
 10
343523.19339303
 20
6655526.10133355
 30
101.40494600
  0
VERTEX
  5
19c
  8
Road
 70
    32
 10
343523.74844199
 20
6655526.45195811
 30
101.32031665
  0
VERTEX
  5
19d
  8
Road
 70
    32
 10
343524.15223718
 20
6655526.79053919
 30
101.19376880
  0
VERTEX
  5
19e
  8
Road
 70
    32
 10
343525.09448438
 20
6655526.99105699
 30
101.25118849
  0
VERTEX
  5
19f
  8
Road
 70
    32
 10
343525.56801316
 20
6655526.85493644
 30
101.09730019
  0
VERTEX
  5
1a0
  8
Road
 70
    32
 10
343526.43198007
 20
6655526.76128176
 30
101.18540643
  0
VERTEX
  5
1a1
  8
Road
 70
    32
 10
343527.03540768
 20
6655526.50502046
 30
101.38740763
  0
VERTEX
  5
1a2
  8
Road
 70
    32
 10
343527.55821948
 20
6655526.15840260
 30
101.43600845
  0
VERTEX
  5
1a3
  8
Road
 70
    32
 10
343528.21644779
 20
6655525.72776564
 30
101.51694009
  0
VERTEX
  5
1a4
  8
Road
 70
    32
 10
343528.70249288
 20
6655525.24179784
 30
101.53306774
  0
VERTEX
  5
1a5
  8
Road
 70
    32
 10
343529.10069701
 20
6655524.81587068
 30
101.62985240
  0
VERTEX
  5
1a6
  8
Road
 70
    32
 10
343529.50575195
 20
6655524.31067499
 30
101.62449317
  0
VERTEX
  5
1a7
  8
Road
 70
    32
 10
343529.89215508
 20
6655523.64331246
 30
101.84304180
  0
VERTEX
  5
1a8
  8
Road
 70
    32
 10
343530.23561063
 20
6655523.06226477
 30
101.97332615
  0
VERTEX
  5
1a9
  8
Road
 70
    32
 10
343530.39524725
 20
6655522.63682663
 30
101.94195220
  0
VERTEX
  5
1aa
  8
Road
 70
    32
 10
343530.71087829
 20
6655522.07319085
 30
101.86233730
  0
VERTEX
  5
1ab
  8
Road
 70
    32
 10
343531.03979825
 20
6655521.55619796
 30
102.04244768
  0
VERTEX
  5
1ac
  8
Road
 70
    32
 10
343531.09327218
 20
6655521.11883633
 30
102.05203995
  0
VERTEX
  5
1ad
  8
Road
 70
    32
 10
343531.02863665
 20
6655520.59206499
 30
102.04429398
  0
VERTEX
  5
1ae
  8
Road
 70
    32
 10
343530.76691628
 20
6655519.97704987
 30
102.05395178
  0
VERTEX
  5
1af
  8
Road
 70
    32
 10
343530.43399792
 20
6655519.54491557
 30
102.06881701
  0
VERTEX
  5
1b0
  8
Road
 70
    32
 10
343530.28321761
 20
6655519.00144283
 30
102.12765585
  0
VERTEX
  5
1b1
  8
Road
 70
    32
 10
343530.01137202
 20
6655518.47342202
 30
102.27030563
  0
VERTEX
  5
1b2
  8
Road
 70
    32
 10
343529.82679132
 20
6655517.98414587
 30
102.28099476
  0
VERTEX
  5
1b3
  8
Road
 70
    32
 10
343529.54788610
 20
6655517.46820659
 30
102.35356241
  0
VERTEX
  5
1b4
  8
Road
 70
    32
 10
343529.23833277
 20
6655517.00186815
 30
102.34540845
  0
VERTEX
  5
1b5
  8
Road
 70
    32
 10
343528.83765779
 20
6655516.42079473
 30
102.36544042
  0
VERTEX
  5
1b6
  8
Road
 70
    32
 10
343528.32890521
 20
6655516.00651429
 30
102.36446284
  0
VERTEX
  5
1b7
  8
Road
 70
    32
 10
343527.85101217
 20
6655515.47273949
 30
102.44074164
  0
VERTEX
  5
1b8
  8
Road
 70
    32
 10
343527.27972082
 20
6655515.05448237
 30
102.48894205
  0
VERTEX
  5
1b9
  8
Road
 70
    32
 10
343526.75785422
 20
6655514.69153284
 30
102.54310369
  0
VERTEX
  5
1ba
  8
Road
 70
    32
 10
343526.31947370
 20
6655514.31371256
 30
102.63194939
  0
VERTEX
  5
1bb
  8
Road
 70
    32
 10
343525.75971640
 20
6655513.99087245
 30
102.63485845
  0
VERTEX
  5
1bc
  8
Road
 70
    32
 10
343525.24466620
 20
6655513.62519266
 30
102.66544687
  0
VERTEX
  5
1bd
  8
Road
 70
    32
 10
343524.70295656
 20
6655513.36156735
 30
102.70621317
  0
VERTEX
  5
1be
  8
Road
 70
    32
 10
343524.21177920
 20
6655513.10279409
 30
102.80380398
  0
VERTEX
  5
1bf
  8
Road
 70
    32
 10
343523.74770289
 20
6655512.70664664
 30
102.79468830
  0
VERTEX
  5
1c0
  8
Road
 70
    32
 10
343523.20739648
 20
6655512.49699129
 30
102.69513302
  0
VERTEX
  5
1c1
  8
Road
 70
    32
 10
343522.65146051
 20
6655512.25312875
 30
102.63891412
  0
VERTEX
  5
1c2
  8
Road
 70
    32
 10
343522.10888462
 20
6655512.04475022
 30
102.58843953
  0
VERTEX
  5
1c3
  8
Road
 70
    32
 10
343521.56778496
 20
6655511.60675105
 30
102.63418444
  0
VERTEX
  5
1c4
  8
Road
 70
    32
 10
343521.12641753
 20
6655511.44239629
 30
102.63012578
  0
VERTEX
  5
1c5
  8
Road
 70
    32
 10
343520.54685194
 20
6655511.24065953
 30
102.59337030
  0
VERTEX
  5
1c6
  8
Road
 70
    32
 10
343519.81646075
 20
6655510.98842653
 30
102.55024416
  0
VERTEX
  5
1c7
  8
Road
 70
    32
 10
343519.16725100
 20
6655510.57415698
 30
102.54163967
  0
VERTEX
  5
1c8
  8
Road
 70
    32
 10
343518.52026070
 20
6655510.29490102
 30
102.54576116
  0
VERTEX
  5
1c9
  8
Road
 70
    32
 10
343517.90745139
 20
6655510.00624436
 30
102.54038334
  0
VERTEX
  5
1ca
  8
Road
 70
    32
 10
343517.25041330
 20
6655509.73409878
 30
102.55489510
  0
VERTEX
  5
1cb
  8
Road
 70
    32
 10
343516.60853603
 20
6655509.60952161
 30
102.57085119
  0
VERTEX
  5
1cc
  8
Road
 70
    32
 10
343515.91652848
 20
6655509.47732481
 30
102.61186048
  0
VERTEX
  5
1cd
  8
Road
 70
    32
 10
343515.15970081
 20
6655509.23168629
 30
102.57010089
  0
VERTEX
  5
1ce
  8
Road
 70
    32
 10
343514.42889779
 20
6655509.03039840
 30
102.63035717
  0
VERTEX
  5
1cf
  8
Road
 70
    32
 10
343513.66481820
 20
6655508.68839175
 30
102.62455915
  0
VERTEX
  5
1d0
  8
Road
 70
    32
 10
343512.89056508
 20
6655508.50052085
 30
102.62026745
  0
VERTEX
  5
1d1
  8
Road
 70
    32
 10
343512.30244090
 20
6655508.29064723
 30
102.63299842
  0
VERTEX
  5
1d2
  8
Road
 70
    32
 10
343511.67880581
 20
6655508.28456091
 30
102.60621676
  0
VERTEX
  5
1d3
  8
Road
 70
    32
 10
343511.03474714
 20
6655508.19970906
 30
102.60573800
  0
VERTEX
  5
1d4
  8
Road
 70
    32
 10
343510.54559718
 20
6655508.11996155
 30
102.75380133
  0
VERTEX
  5
1d5
  8
Road
 70
    32
 10
343510.02576408
 20
6655508.21675327
 30
102.92914894
  0
VERTEX
  5
1d6
  8
Road
 70
    32
 10
343509.49905726
 20
6655508.71036689
 30
102.98153171
  0
VERTEX
  5
1d7
  8
Road
 70
    32
 10
343509.25153182
 20
6655509.17175731
 30
102.98501690
  0
VERTEX
  5
1d8
  8
Road
 70
    32
 10
343508.73465374
 20
6655509.66927639
 30
102.99765228
  0
VERTEX
  5
1d9
  8
Road
 70
    32
 10
343508.41748837
 20
6655510.24672356
 30
102.96502838
  0
VERTEX
  5
1da
  8
Road
 70
    32
 10
343508.09872156
 20
6655510.70328642
 30
102.95847590
  0
VERTEX
  5
1db
  8
Road
 70
    32
 10
343507.83994990
 20
6655511.45376048
 30
102.88109078
  0
VERTEX
  5
1dc
  8
Road
 70
    32
 10
343507.73512682
 20
6655511.93287192
 30
102.91941064
  0
VERTEX
  5
1dd
  8
Road
 70
    32
 10
343507.43840175
 20
6655512.50304836
 30
102.94968083
  0
VERTEX
  5
1de
  8
Road
 70
    32
 10
343507.29457118
 20
6655513.24576420
 30
102.97430580
  0
VERTEX
  5
1df
  8
Road
 70
    32
 10
343507.18230056
 20
6655513.98333227
 30
102.95942546
  0
VERTEX
  5
1e0
  8
Road
 70
    32
 10
343506.92042776
 20
6655514.63799100
 30
102.95233228
  0
VERTEX
  5
1e1
  8
Road
 70
    32
 10
343506.73931384
 20
6655515.37153956
 30
102.88371605
  0
VERTEX
  5
1e2
  8
Road
 70
    32
 10
343506.44759949
 20
6655515.94789267
 30
102.91022725
  0
VERTEX
  5
1e3
  8
Road
 70
    32
 10
343506.12178295
 20
6655516.54378064
 30
102.93168277
  0
VERTEX
  5
1e4
  8
Road
 70
    32
 10
343505.94840517
 20
6655517.22882053
 30
102.93271094
  0
VERTEX
  5
1e5
  8
Road
 70
    32
 10
343505.86910138
 20
6655517.88055000
 30
102.97528749
  0
VERTEX
  5
1e6
  8
Road
 70
    32
 10
343506.40629104
 20
6655519.01290357
 30
103.03922206
  0
VERTEX
  5
1e7
  8
Road
 70
    32
 10
343506.70030553
 20
6655519.65828181
 30
103.11051175
  0
VERTEX
  5
1e8
  8
Road
 70
    32
 10
343507.36765860
 20
6655519.53586663
 30
103.25596489
  0
SEQEND
  8
Road
  0
INSERT
  5
1ea
  8
Road
 66
     1
  2
Road_ATTR
 10
343500.70292140
 20
6655508.10577674
 30
103.20803434
  0
ATTRIB
  5
1eb
  8
Road
 62
     7
 10
343502.71010453
 20
6655510.11295987
 30
103.20803434
 40
2.00718313
  1
Unknown
 72
     0
  7
STANDARD
  2
Name
 70
     2
  0
ATTRIB
  5
1ec
  8
Road
 62
     7
 10
343502.71010453
 20
6655507.10218518
 30
103.20803434
 40
2.00718313
  1

 72
     0
  7
STANDARD
  2
Pavement
 70
     2
  0
ATTRIB
  5
1ed
  8
Road
 62
     7
 10
343502.71010453
 20
6655504.09141048
 30
103.20803434
 40
2.00718313
  1
2
 72
     0
  7
STANDARD
  2
#_of_lanes
 70
     2
  0
SEQEND
  5
1ee
  8
Road
  0
POLYLINE
  5
212
  8
Road
 66
     1
 10
0.00000000
 20
0.00000000
 30
0.00000000
 70
     8
  0
VERTEX
  5
1ef
  8
Road
 70
    32
 10
343509.34544224
 20
6655510.78112484
 30
102.85036906
  0
VERTEX
  5
1f0
  8
Road
 70
    32
 10
343509.00825194
 20
6655510.76131268
 30
102.94828977
  0
VERTEX
  5
1f1
  8
Road
 70
    32
 10
343508.61445234
 20
6655510.67650931
 30
103.02528170
  0
VERTEX
  5
1f2
  8
Road
 70
    32
 10
343508.09230417
 20
6655510.49069558
 30
103.03341721
  0
VERTEX
  5
1f3
  8
Road
 70
    32
 10
343507.54765471
 20
6655510.32584393
 30
103.04687055
  0
VERTEX
  5
1f4
  8
Road
 70
    32
 10
343506.92802021
 20
6655510.13823031
 30
103.00525835
  0
VERTEX
  5
1f5
  8
Road
 70
    32
 10
343506.48323615
 20
6655509.94741266
 30
103.01744204
  0
VERTEX
  5
1f6
  8
Road
 70
    32
 10
343506.11214776
 20
6655509.77976841
 30
103.11826220
  0
VERTEX
  5
1f7
  8
Road
 70
    32
 10
343505.54274188
 20
6655509.63904369
 30
103.04350196
  0
VERTEX
  5
1f8
  8
Road
 70
    32
 10
343504.97923194
 20
6655509.53795397
 30
103.02654541
  0
VERTEX
  5
1f9
  8
Road
 70
    32
 10
343504.37855556
 20
6655509.34372192
 30
103.01021885
  0
VERTEX
  5
1fa
  8
Road
 70
    32
 10
343503.78668122
 20
6655509.16241280
 30
103.05356671
  0
VERTEX
  5
1fb
  8
Road
 70
    32
 10
343503.27582691
 20
6655508.95231708
 30
103.09364094
  0
VERTEX
  5
1fc
  8
Road
 70
    32
 10
343502.67504059
 20
6655508.78280968
 30
103.14330240
  0
VERTEX
  5
1fd
  8
Road
 70
    32
 10
343502.15219089
 20
6655508.49395052
 30
103.29413178
  0
VERTEX
  5
1fe
  8
Road
 70
    32
 10
343501.61026501
 20
6655508.28325124
 30
103.26942425
  0
VERTEX
  5
1ff
  8
Road
 70
    32
 10
343501.04919468
 20
6655508.27088366
 30
103.25520750
  0
VERTEX
  5
200
  8
Road
 70
    32
 10
343500.70292140
 20
6655508.10577674
 30
103.20803434
  0
VERTEX
  5
201
  8
Road
 70
    32
 10
343500.25475261
 20
6655508.07313275
 30
103.20856579
  0
VERTEX
  5
202
  8
Road
 70
    32
 10
343499.62113577
 20
6655507.93073453
 30
103.08733721
  0
VERTEX
  5
203
  8
Road
 70
    32
 10
343498.03533519
 20
6655507.48012201
 30
103.07794294
  0
VERTEX
  5
204
  8
Road
 70
    32
 10
343497.15560565
 20
6655507.54944870
 30
103.14919874
  0
VERTEX
  5
205
  8
Road
 70
    32
 10
343496.25751129
 20
6655507.88912803
 30
103.23938917
  0
VERTEX
  5
206
  8
Road
 70
    32
 10
343495.87114769
 20
6655507.76847768
 30
103.32287358
  0
VERTEX
  5
207
  8
Road
 70
    32
 10
343494.50789478
 20
6655508.00855946
 30
103.25282875
  0
VERTEX
  5
208
  8
Road
 70
    32
 10
343493.95974019
 20
6655507.70734888
 30
103.18645075
  0
VERTEX
  5
209
  8
Road
 70
    32
 10
343492.66025706
 20
6655507.60827038
 30
103.19826122
  0
VERTEX
  5
20a
  8
Road
 70
    32
 10
343491.66560933
 20
6655507.51662252
 30
103.13380227
  0
VERTEX
  5
20b
  8
Road
 70
    32
 10
343488.84068845
 20
6655507.28453603
 30
103.04860748
  0
VERTEX
  5
20c
  8
Road
 70
    32
 10
343487.88416808
 20
6655507.14367852
 30
103.40519117
  0
VERTEX
  5
20d
  8
Road
 70
    32
 10
343487.06876857
 20
6655506.98817476
 30
103.97073014
  0
VERTEX
  5
20e
  8
Road
 70
    32
 10
343486.24073514
 20
6655506.88620072
 30
103.58417044
  0
VERTEX
  5
20f
  8
Road
 70
    32
 10
343484.64868279
 20
6655506.53327647
 30
103.38368014
  0
VERTEX
  5
210
  8
Road
 70
    32
 10
343482.97013938
 20
6655506.22363084
 30
103.30766571
  0
VERTEX
  5
211
  8
Road
 70
    32
 10
343482.79610394
 20
6655506.33572801
 30
103.11984943
  0
SEQEND
  8
Road
  0
INSERT
  5
213
  8
Road
 66
     1
  2
Road_ATTR
 10
343461.96635527
 20
6655505.75364300
 30
104.49565537
  0
ATTRIB
  5
214
  8
Road
 62
     7
 10
343463.97353840
 20
6655507.76082613
 30
104.49565537
 40
2.00718313
  1
Unknown
 72
     0
  7
STANDARD
  2
Name
 70
     2
  0
ATTRIB
  5
215
  8
Road
 62
     7
 10
343463.97353840
 20
6655504.75005143
 30
104.49565537
 40
2.00718313
  1

 72
     0
  7
STANDARD
  2
Pavement
 70
     2
  0
ATTRIB
  5
216
  8
Road
 62
     7
 10
343463.97353840
 20
6655501.73927673
 30
104.49565537
 40
2.00718313
  1
2
 72
     0
  7
STANDARD
  2
#_of_lanes
 70
     2
  0
SEQEND
  5
217
  8
Road
  0
POLYLINE
  5
222
  8
Road
 66
     1
 10
0.00000000
 20
0.00000000
 30
0.00000000
 70
     8
  0
VERTEX
  5
218
  8
Road
 70
    32
 10
343468.25270211
 20
6655505.88420346
 30
103.83067036
  0
VERTEX
  5
219
  8
Road
 70
    32
 10
343467.86552274
 20
6655505.79582141
 30
103.88081636
  0
VERTEX
  5
21a
  8
Road
 70
    32
 10
343466.60454262
 20
6655505.87475236
 30
104.05818942
  0
VERTEX
  5
21b
  8
Road
 70
    32
 10
343465.97507310
 20
6655505.77716467
 30
104.20821716
  0
VERTEX
  5
21c
  8
Road
 70
    32
 10
343465.19492587
 20
6655505.66151363
 30
104.26664269
  0
VERTEX
  5
21d
  8
Road
 70
    32
 10
343461.96635527
 20
6655505.75364300
 30
104.49565537
  0
VERTEX
  5
21e
  8
Road
 70
    32
 10
343461.34057634
 20
6655505.16189994
 30
104.44199601
  0
VERTEX
  5
21f
  8
Road
 70
    32
 10
343460.65662968
 20
6655504.93431893
 30
104.19384633
  0
VERTEX
  5
220
  8
Road
 70
    32
 10
343459.99502825
 20
6655505.08090683
 30
104.01812832
  0
VERTEX
  5
221
  8
Road
 70
    32
 10
343458.27937891
 20
6655505.06032538
 30
103.95527689
  0
SEQEND
  8
Road
  0
INSERT
  5
223
  8
Road
 66
     1
  2
Road_ATTR
 10
343428.55147246
 20
6655501.04740779
 30
104.52116184
  0
ATTRIB
  5
224
  8
Road
 62
     7
 10
343430.55865559
 20
6655503.05459092
 30
104.52116184
 40
2.00718313
  1
Unknown
 72
     0
  7
STANDARD
  2
Name
 70
     2
  0
ATTRIB
  5
225
  8
Road
 62
     7
 10
343430.55865559
 20
6655500.04381623
 30
104.52116184
 40
2.00718313
  1

 72
     0
  7
STANDARD
  2
Pavement
 70
     2
  0
ATTRIB
  5
226
  8
Road
 62
     7
 10
343430.55865559
 20
6655497.03304153
 30
104.52116184
 40
2.00718313
  1
2
 72
     0
  7
STANDARD
  2
#_of_lanes
 70
     2
  0
SEQEND
  5
227
  8
Road
  0
POLYLINE
  5
235
  8
Road
 66
     1
 10
0.00000000
 20
0.00000000
 30
0.00000000
 70
     8
  0
VERTEX
  5
228
  8
Road
 70
    32
 10
343452.40123356
 20
6655502.99753574
 30
104.89484039
  0
VERTEX
  5
229
  8
Road
 70
    32
 10
343451.99095464
 20
6655503.09112703
 30
104.73091062
  0
VERTEX
  5
22a
  8
Road
 70
    32
 10
343431.91083620
 20
6655500.77345920
 30
104.45537544
  0
VERTEX
  5
22b
  8
Road
 70
    32
 10
343431.09572435
 20
6655500.95172362
 30
104.48219230
  0
VERTEX
  5
22c
  8
Road
 70
    32
 10
343430.48550882
 20
6655501.13458511
 30
104.59443038
  0
VERTEX
  5
22d
  8
Road
 70
    32
 10
343429.22971793
 20
6655501.42159267
 30
104.38668984
  0
VERTEX
  5
22e
  8
Road
 70
    32
 10
343428.55147246
 20
6655501.04740779
 30
104.52116184
  0
VERTEX
  5
22f
  8
Road
 70
    32
 10
343426.60876710
 20
6655501.06267987
 30
105.07414565
  0
VERTEX
  5
230
  8
Road
 70
    32
 10
343426.09940306
 20
6655501.18822776
 30
104.92056730
  0
VERTEX
  5
231
  8
Road
 70
    32
 10
343425.81383129
 20
6655501.07221855
 30
104.19826075
  0
VERTEX
  5
232
  8
Road
 70
    32
 10
343425.03634262
 20
6655500.98127848
 30
104.21706500
  0
VERTEX
  5
233
  8
Road
 70
    32
 10
343424.12845121
 20
6655501.14061132
 30
104.11170132
  0
VERTEX
  5
234
  8
Road
 70
    32
 10
343423.54078891
 20
6655501.29768178
 30
104.06073769
  0
SEQEND
  8
Road
  0
INSERT
  5
236
  8
Road
 66
     1
  2
Road_ATTR
 10
343463.00211550
 20
6655480.22693848
 30
108.97936503
  0
ATTRIB
  5
237
  8
Road
 62
     7
 10
343465.00929863
 20
6655482.23412161
 30
108.97936503
 40
2.00718313
  1
Unknown
 72
     0
  7
STANDARD
  2
Name
 70
     2
  0
ATTRIB
  5
238
  8
Road
 62
     7
 10
343465.00929863
 20
6655479.22334692
 30
108.97936503
 40
2.00718313
  1

 72
     0
  7
STANDARD
  2
Pavement
 70
     2
  0
ATTRIB
  5
239
  8
Road
 62
     7
 10
343465.00929863
 20
6655476.21257222
 30
108.97936503
 40
2.00718313
  1
2
 72
     0
  7
STANDARD
  2
#_of_lanes
 70
     2
  0
SEQEND
  5
23a
  8
Road
  0
POLYLINE
  5
272
  8
Road
 66
     1
 10
0.00000000
 20
0.00000000
 30
0.00000000
 70
     8
  0
VERTEX
  5
23b
  8
Road
 70
    32
 10
343427.57319379
 20
6655466.73615911
 30
101.95078604
  0
VERTEX
  5
23c
  8
Road
 70
    32
 10
343427.67261677
 20
6655466.56180736
 30
102.36963856
  0
VERTEX
  5
23d
  8
Road
 70
    32
 10
343427.86830275
 20
6655466.57868697
 30
102.47122331
  0
VERTEX
  5
23e
  8
Road
 70
    32
 10
343428.11287224
 20
6655466.72366346
 30
102.44835401
  0
VERTEX
  5
23f
  8
Road
 70
    32
 10
343432.68435207
 20
6655466.80406688
 30
103.18892547
  0
VERTEX
  5
240
  8
Road
 70
    32
 10
343433.58994837
 20
6655467.31487224
 30
103.14792688
  0
VERTEX
  5
241
  8
Road
 70
    32
 10
343434.49031092
 20
6655467.39298734
 30
102.98845159
  0
VERTEX
  5
242
  8
Road
 70
    32
 10
343436.08816717
 20
6655467.29955889
 30
103.61088329
  0
VERTEX
  5
243
  8
Road
 70
    32
 10
343439.27294144
 20
6655468.68555046
 30
103.57443709
  0
VERTEX
  5
244
  8
Road
 70
    32
 10
343443.91738833
 20
6655470.18721927
 30
103.38093963
  0
VERTEX
  5
245
  8
Road
 70
    32
 10
343444.91239097
 20
6655471.47141522
 30
103.18092945
  0
VERTEX
  5
246
  8
Road
 70
    32
 10
343446.22380282
 20
6655470.83409093
 30
103.91457584
  0
VERTEX
  5
247
  8
Road
 70
    32
 10
343449.53968371
 20
6655469.47530612
 30
105.21824128
  0
VERTEX
  5
248
  8
Road
 70
    32
 10
343449.93473194
 20
6655469.29809262
 30
105.06523176
  0
VERTEX
  5
249
  8
Road
 70
    32
 10
343450.23369060
 20
6655472.91011437
 30
105.27630718
  0
VERTEX
  5
24a
  8
Road
 70
    32
 10
343449.90556846
 20
6655474.25767032
 30
105.47949974
  0
VERTEX
  5
24b
  8
Road
 70
    32
 10
343452.16916629
 20
6655476.14755641
 30
107.27932694
  0
VERTEX
  5
24c
  8
Road
 70
    32
 10
343453.41186995
 20
6655476.98991196
 30
108.86138507
  0
VERTEX
  5
24d
  8
Road
 70
    32
 10
343453.51589383
 20
6655477.35618440
 30
108.88167099
  0
VERTEX
  5
24e
  8
Road
 70
    32
 10
343456.00194516
 20
6655479.85380339
 30
108.39478529
  0
VERTEX
  5
24f
  8
Road
 70
    32
 10
343456.68692103
 20
6655480.23177115
 30
108.40668316
  0
VERTEX
  5
250
  8
Road
 70
    32
 10
343456.97207716
 20
6655480.41157629
 30
108.92869357
  0
VERTEX
  5
251
  8
Road
 70
    32
 10
343457.08447558
 20
6655480.65663098
 30
108.95845087
  0
VERTEX
  5
252
  8
Road
 70
    32
 10
343457.50670834
 20
6655480.74976538
 30
108.86201968
  0
VERTEX
  5
253
  8
Road
 70
    32
 10
343459.95300674
 20
6655479.29362469
 30
109.30496746
  0
VERTEX
  5
254
  8
Road
 70
    32
 10
343460.78241987
 20
6655480.36131811
 30
109.36826236
  0
VERTEX
  5
255
  8
Road
 70
    32
 10
343462.32214838
 20
6655480.06891264
 30
109.07529521
  0
VERTEX
  5
256
  8
Road
 70
    32
 10
343463.00211550
 20
6655480.22693848
 30
108.97936503
  0
VERTEX
  5
257
  8
Road
 70
    32
 10
343463.54800854
 20
6655480.19731061
 30
108.89710019
  0
VERTEX
  5
258
  8
Road
 70
    32
 10
343464.43327988
 20
6655478.91770241
 30
109.29184280
  0
VERTEX
  5
259
  8
Road
 70
    32
 10
343465.63461064
 20
6655479.40877249
 30
109.35084584
  0
VERTEX
  5
25a
  8
Road
 70
    32
 10
343466.45319378
 20
6655478.82517517
 30
109.58930788
  0
VERTEX
  5
25b
  8
Road
 70
    32
 10
343467.84048894
 20
6655479.80758430
 30
109.40684653
  0
VERTEX
  5
25c
  8
Road
 70
    32
 10
343467.89651315
 20
6655480.54399456
 30
108.09031499
  0
VERTEX
  5
25d
  8
Road
 70
    32
 10
343469.82675345
 20
6655480.87858394
 30
107.75358920
  0
VERTEX
  5
25e
  8
Road
 70
    32
 10
343471.02464386
 20
6655480.74524006
 30
107.66840293
  0
VERTEX
  5
25f
  8
Road
 70
    32
 10
343473.34156054
 20
6655480.83090944
 30
107.51995289
  0
VERTEX
  5
260
  8
Road
 70
    32
 10
343479.27455945
 20
6655479.10631970
 30
109.68444036
  0
VERTEX
  5
261
  8
Road
 70
    32
 10
343480.86710939
 20
6655478.56069490
 30
109.83175085
  0
VERTEX
  5
262
  8
Road
 70
    32
 10
343481.44557455
 20
6655477.54667066
 30
110.19371427
  0
VERTEX
  5
263
  8
Road
 70
    32
 10
343481.50984187
 20
6655478.60092593
 30
109.93295067
  0
VERTEX
  5
264
  8
Road
 70
    32
 10
343481.80141407
 20
6655478.84685142
 30
109.86795448
  0
VERTEX
  5
265
  8
Road
 70
    32
 10
343483.20160860
 20
6655478.93659466
 30
109.78329718
  0
VERTEX
  5
266
  8
Road
 70
    32
 10
343483.93595879
 20
6655478.40644308
 30
109.77543093
  0
VERTEX
  5
267
  8
Road
 70
    32
 10
343484.72152784
 20
6655478.35141041
 30
109.70896404
  0
VERTEX
  5
268
  8
Road
 70
    32
 10
343488.12653681
 20
6655478.69946701
 30
107.77274002
  0
VERTEX
  5
269
  8
Road
 70
    32
 10
343488.37710641
 20
6655478.60134018
 30
107.64571685
  0
VERTEX
  5
26a
  8
Road
 70
    32
 10
343488.82920681
 20
6655478.45210957
 30
107.44219404
  0
VERTEX
  5
26b
  8
Road
 70
    32
 10
343489.96105588
 20
6655478.44804831
 30
107.57407688
  0
VERTEX
  5
26c
  8
Road
 70
    32
 10
343490.10434641
 20
6655478.77198930
 30
107.35571937
  0
VERTEX
  5
26d
  8
Road
 70
    32
 10
343491.05864696
 20
6655478.49694696
 30
107.14936761
  0
VERTEX
  5
26e
  8
Road
 70
    32
 10
343491.95857305
 20
6655478.34942284
 30
106.95699183
  0
VERTEX
  5
26f
  8
Road
 70
    32
 10
343493.24477789
 20
6655477.75293244
 30
106.74476087
  0
VERTEX
  5
270
  8
Road
 70
    32
 10
343494.23701602
 20
6655477.17590568
 30
106.59263903
  0
VERTEX
  5
271
  8
Road
 70
    32
 10
343496.37346069
 20
6655477.15286264
 30
106.73318361
  0
SEQEND
  8
Road
  0
INSERT
  5
273
  8
Road
 66
     1
  2
Road_ATTR
 10
343509.55313680
 20
6655476.43833246
 30
105.00566603
  0
ATTRIB
  5
274
  8
Road
 62
     7
 10
343511.56031993
 20
6655478.44551559
 30
105.00566603
 40
2.00718313
  1
Unknown
 72
     0
  7
STANDARD
  2
Name
 70
     2
  0
ATTRIB
  5
275
  8
Road
 62
     7
 10
343511.56031993
 20
6655475.43474089
 30
105.00566603
 40
2.00718313
  1

 72
     0
  7
STANDARD
  2
Pavement
 70
     2
  0
ATTRIB
  5
276
  8
Road
 62
     7
 10
343511.56031993
 20
6655472.42396619
 30
105.00566603
 40
2.00718313
  1
2
 72
     0
  7
STANDARD
  2
#_of_lanes
 70
     2
  0
SEQEND
  5
277
  8
Road
  0
POLYLINE
  5
293
  8
Road
 66
     1
 10
0.00000000
 20
0.00000000
 30
0.00000000
 70
     8
  0
VERTEX
  5
278
  8
Road
 70
    32
 10
343496.54388867
 20
6655475.95478742
 30
107.35022917
  0
VERTEX
  5
279
  8
Road
 70
    32
 10
343497.62781259
 20
6655475.83854060
 30
107.17350413
  0
VERTEX
  5
27a
  8
Road
 70
    32
 10
343498.32343212
 20
6655475.61983751
 30
107.04605873
  0
VERTEX
  5
27b
  8
Road
 70
    32
 10
343499.08169338
 20
6655475.46672672
 30
107.09746589
  0
VERTEX
  5
27c
  8
Road
 70
    32
 10
343499.83639487
 20
6655475.31790149
 30
106.95904194
  0
VERTEX
  5
27d
  8
Road
 70
    32
 10
343500.32033572
 20
6655475.46954476
 30
106.70190867
  0
VERTEX
  5
27e
  8
Road
 70
    32
 10
343501.97963044
 20
6655474.87893999
 30
106.34597130
  0
VERTEX
  5
27f
  8
Road
 70
    32
 10
343502.81352039
 20
6655474.94914010
 30
106.29600105
  0
VERTEX
  5
280
  8
Road
 70
    32
 10
343503.02072954
 20
6655475.34937432
 30
106.06830448
  0
VERTEX
  5
281
  8
Road
 70
    32
 10
343503.74709566
 20
6655475.50955197
 30
105.88186641
  0
VERTEX
  5
282
  8
Road
 70
    32
 10
343504.41727211
 20
6655475.86079609
 30
105.84190199
  0
VERTEX
  5
283
  8
Road
 70
    32
 10
343505.04499404
 20
6655475.95308192
 30
105.71087950
  0
VERTEX
  5
284
  8
Road
 70
    32
 10
343509.09622141
 20
6655476.35222184
 30
105.17206349
  0
VERTEX
  5
285
  8
Road
 70
    32
 10
343509.55313680
 20
6655476.43833246
 30
105.00566603
  0
VERTEX
  5
286
  8
Road
 70
    32
 10
343510.81198440
 20
6655477.05464522
 30
104.99182273
  0
VERTEX
  5
287
  8
Road
 70
    32
 10
343511.69906779
 20
6655477.44202578
 30
104.97293104
  0
VERTEX
  5
288
  8
Road
 70
    32
 10
343512.17105255
 20
6655477.87945060
 30
105.03815878
  0
VERTEX
  5
289
  8
Road
 70
    32
 10
343512.57277937
 20
6655478.23224473
 30
105.17846815
  0
VERTEX
  5
28a
  8
Road
 70
    32
 10
343513.39645900
 20
6655478.96837324
 30
105.19783444
  0
VERTEX
  5
28b
  8
Road
 70
    32
 10
343513.48743515
 20
6655479.30643916
 30
105.18734170
  0
VERTEX
  5
28c
  8
Road
 70
    32
 10
343515.05620285
 20
6655479.11727607
 30
104.50572089
  0
VERTEX
  5
28d
  8
Road
 70
    32
 10
343516.20473159
 20
6655480.45767816
 30
104.28821063
  0
VERTEX
  5
28e
  8
Road
 70
    32
 10
343517.35134447
 20
6655480.10851905
 30
104.18316461
  0
VERTEX
  5
28f
  8
Road
 70
    32
 10
343518.95551101
 20
6655480.01779018
 30
104.02388948
  0
VERTEX
  5
290
  8
Road
 70
    32
 10
343519.96994966
 20
6655480.07603947
 30
103.93193844
  0
VERTEX
  5
291
  8
Road
 70
    32
 10
343522.31769886
 20
6655481.92132926
 30
103.82278712
  0
VERTEX
  5
292
  8
Road
 70
    32
 10
343522.86004893
 20
6655482.86595632
 30
103.00660616
  0
SEQEND
  8
Road
  0
ENDSEC
  0
EOF
